Acordes de Guitarra » G »Guaco » Pregúntale a Carruyo (Tab)

Pregúntale a Carruyo
Guaco

  • PA'L ZULIA!!!!!:
    
    Intro/Estribillo:
    
    ("La gaita es la popular expersion del sentimiento, que lleva el
    zuliano acento en la tradición pascual..."):
    G ---------------------------------------------------------|
    D ---------------------------------------------------------|
    A --------9-11----9-11---9-------------9-11---9-11-9---9---|
    E -7-8-9--------9----------9-7--7-8--9------9--------9-----|
    
    ("No le vengan a imponer reglas, compás ni un cirullo..."):
    G --------------------------|
    D ---8-9----6-8---6-8---8-8-|
    A -7------6-----6-----6-----|
    E --------------------------|
    
    ("Preguntámele a Carruyo como las hacía él"):
    G ----------|-----------------|
    D -9-10-11--|-------11--------|
    A ----------|-11-11----11---9-|
    E ----------|-------------9---|
    
    Entrada a la estrofa:
    G ------------------------|
    D -----------8------------|
    A -8-6-----6---6-----6----|
    E -----6-6-------6-6------|
    
    Estrofas: (2 Veces)
    
    (Estrofa I: "Mi gaita es pa' que cantéis, pa' que la bailen y
    la gocen, no se si es 8 por 
  • +
    ¡Colabora con nosotros!
    Envíanos tu versión de esta canción






[Pregúntale a Carruyo chords][Pregúntale a Carruyo cifra]
© LaCuerda.net · aviso legal · privacidad · es · en · pt · contacto