Acordes de Guitarra » G »Grupo Nectar » De mi te vas a enamorar (Tab)

De mi te vas a enamorar
Grupo Nectar

Letras, Notas, Punteos, Tablaturas y Acordes de Guitarra (Tabs & Chords)

  • Tablatura
       D        G                      Bm
    E-----------------------------------------------
    B----------------------------------3-3-3-3-5-3--
    G-----------4-4-4-4-5-4---0-0-2-4-0-------------
    D--0-O-2-4-0------------------------------------
    A-----------------------------------------------
    E-----------------------------------------------
    
            C                       D
    E------------------------------------
    B-----7-10-8-7-10-8-7-8--8-8-7---7---
    G--7-9------------------------9-9-7--
    D------------------------------------
    A------------------------------------
    
                G                      Bm
    E----------------------------------2-2-2-2-3-2--
    B-----------3-3-3-3-5-3---0-0-1-3-0-------------
    G--0-0-2-4-0------------------------------------
    D-----------------------------------------------
    
  • +
    ¡Colabora con nosotros!
    Envíanos tu versión de esta canción

Letra de De mi te vas a enamorar
HACEMOS EL AMOR
Y NO PODEMOS NEGAR
QUE ESTAMOS ENAMORADOS
PORQUE ESTAMOS LIGADOS
CORAZÓN Y CUERPO...
CUANDO RECORRO TU PIEL,
PASANDO POR TUS LINDOS PECHOS,
TÚ ME HACES CREER,
TÚ ME HACES SENTIR
QUE ESTO ES VERDADERO...
NO ME MIRES ASÍ... CON ESA MIRADA PROHIBIDA...
DE MÍ TE VAS A ENAMORAR
PORQUE NADIE TE BESARÁ,
NADIE TE TOCARÁ,
NADIE TE HARÁ EL AMOR
COMO LO HAGO YO...
DE MÍ TE VAS A ENAMORAR
PORQUE NADIE TE BESARÁ,
NADIE TE TOCARÁ,
NADIE TE HARÁ EL AMOR
COMO LO HAGO YO...
REPETIR INTRO
HACEMOS EL AMOR
Y NO PODEMOS NEGAR
QUE ESTAMOS ENAMORADOS
PORQUE ESTAMOS LIGADOS
CORAZÓN Y CUERPO...
CUANDO RECORRO TU PIEL,
PASANDO POR TUS LINDOS PECHOS,
TÚ ME HACES SENTIR,
TÚ ME HACES CREER
QUE ESTO ES VERDADERO...
NO ME MIRES ASÍ... CON ESA MIRADA PROHIBIDA...
DE MÍ TE VAS A ENAMORAR
PORQUE NADIE TE BESARÁ,
NADIE TE TOCARÁ,
NADIE TE HARÁ EL AMOR
COMO LO HAGO YO...
DE MÍ TE VAS A ENAMORAR
PORQUE NADIE TE BESARÁ,
NADIE TE TOCARÁ,
NADIE TE HARÁ EL AMOR
COMO LO HAGO YO...
DE MÍ TE VAS A ENAMORAR
PORQUE NADIE TE BESARÁ,
NADIE TE TOCARÁ,
NADIE TE HARÁ EL AMOR
COMO LO HAGO YO...
DE MÍ TE VAS A ENAMORAR
PORQUE NADIE TE BESARÁ,
NADIE TE TOCARÁ,
NADIE TE HARÁ EL AMOR
COMO LO HAGO YO...

Videos de De mi te vas a enamorar
[ver más videos]

[ver todas las canciones]


© LaCuerda.net · Aviso Legal · Privacidad