Acordes de Guitarra » G »Grupo Karicia » Desesperado (Tab)

Desesperado
Grupo Karicia

Letras, Acordes y Tabs para Guitarra, Bajo y Ukulele

  • 1----------7-7-7-7-7-7-7-7-7
    2--------8---8-8-8-8-8-8-8-8   (escuchar bien cuantas veces lo hace)
    3------9--------------------
    4----9----------------------
    
    
    1--7-7--7]]8---8-8-8-8-8-8-8---8--8-   (devuelta escuchar bien)
    2---8---8]]10--10-10-10-10-10---10--
    3-----------------------------------
    
    
    1--7-7-7-7-7-7-7-7---
    2--8-8-8-8-8-8-8-8---  (escuchar bien cuantas veces lo hace)
    3--------------------
    
    
    Hace todo de vuelta y después esto
    
    
    1-7----------------------------
    
  • ----------------------------------------
    
    1-7--------------------7--------------
    2---10-8-7--7-7-7--------10--8-7------
    3--------------------------------9-9-9
    4-------------------------------------
    5-------------------------------------
    6-------------------------------------
    
    
    1-7--------------------7--------------
    2---10-8-7--7-7-7--------10--8-7------
    3--------------------------------9-7-9
    4-------------------------------------    (x2)
    5-------------------------------------
    6-------------------------------------
    
     Em                           Am            Em
     hoy al despertar solo en mi cama , con lagrimas.
    
    
  • +
    ¡Colabora con nosotros!
    Envíanos tu versión de esta canción

Letra de Desesperado
hoy al despertar solo en mi cama , con lagrimas.
por el recuerdo de nuestras noches y tu no estas
.
la tristeza imbade aqui en mi pecho , este amor
del miedo q no regreses , me haces llorar.
desesperado,desesperado.
estoy aqui solo y sin ti
sino regresas entre copas ahogare
este amor,este amor
yo solo agrego el punteo la letra se la afane
a miguel que la hizo para la versión de una de kal.
y yo se la dedico a todos los cumbieros de las termas de rio hondo loco.
Claudio coria de una




[Desesperado chords][Desesperado cifra]
© LaCuerda.net · aviso legal · privacidad · es · en · pt · contacto
DINAMICO