Acordes de Guitarra » G »Gondwana » Tu Amor (Tab)

Tu Amor
Gondwana

Letras, Acordes y Tabs para Guitarra, Bajo y Ukulele

  • Bueno pues esta es una rola facil y chida
    de esta banda, dudas haganmelo saber...
    
    Intro
    
    G| |--------------0---------------------|-----------|------------|
    D| |-----------1-----3--1--3--1---------|-----------|-----------5|
    A| |--------3--------------------3--1--1|--------111|--3-----3---|
    E| |--1--1------------------------------|--1--3-----|-----3------|
    
    G| |--------------|------------|--------------|------------------|
    D| |-----------555|-----------3|-----------333|-----3--(slide)--2|
    A| |--3-----3-----|--1-----1---|--1-----1-----|--3---------------|
    E| |-----3--------|-----1------|-----1--------|------------------|
    
    Wooaoaaoaoa…
    G| |----------------|----------------|----------------|---------|
    D| |--------------33|--------------55|--------------33|---------|
    A| |-----------1----|--1-----1--3----|--3-----3--1----|--1-----1|
    E| |--1--4--1-------|-----1----------|-----3----------|-----1---|
    
    Libres para expresar…
    G| |------------------|---------| -|-
    D| |--1--3------------|---------
  • +
    ¡Colabora con nosotros!
    Envíanos tu versión de esta canción






[Tu Amor chords][Tu Amor cifra]
© LaCuerda.net · aviso legal · privacidad · es · en · pt · contacto
DINAMICO