Acordes de Guitarra » G »Gerardo Coronel » Te deseo lo mejor (Tab)

Te deseo lo mejor
Gerardo Coronel

Letras, Acordes y Tabs para Guitarra, Bajo y Ukulele

  • C D7 G-Bm-Em  D7 C-D7-G
    
    G
    Te deseo lo mejor
                 C             D7        G
    y que el te quiera mucho, mucho mas que yo
               C           D7           G
    que te perdone cada traición tras traicion
                 D7
    tal como lo hice yo,
    
                 C                   D7
    Si quieres pásame su numero y le marco
                           G ------- Bm ------ Em
    pa' explicarle paso a paso como elevar tu pasión
                D7
    si quieres déjame explicarle de que forma acariciarte
         D7
    Si quieres déjame decirle al pendejo
        G7
    
  • E|------------------------3-----2-3-2-3-3-2--2-2-----------
    B|---0-0-0--1-1-1--3-3-3--5-----3-4-3-4-4-3--3-3-----------
    G|---0-0-0--2-2-2--4-4-4-----------------------------------
    D|---------------------------------------------------------
    A|---------------------------------------------------------
    E|---------------------------------------------------------
    
    E|---0-0-2-0---2-0-2-0---2-0-2/3
    B|---0-1-3-0---3-0-3-0---3-0-3/5
    G|------------------------------
    D|------------------------------
    A|------------------------------
    E|------------------------------
    
    E|---0-0-------------------
    B|---0-1-----0-1-0-1-0-----
    G|---------------------2-0-
    D|-------------------------
    A|-------------------------
    E|-------------------------
    
  • +
    ¡Colabora con nosotros!
    Envíanos tu versión de esta canción

Letra de Te deseo lo mejor
Te deseo lo mejor
y que el te quiera mucho, mucho mas que yo
que te perdone cada traición tras traicion
tal como lo hice yo,
Si quieres pásame su numero y le marco
pa' explicarle paso a paso como elevar tu pasión
si quieres déjame explicarle de que forma acariciarte
Si quieres déjame decirle al pendejo
la forma correcta de hacerte el amor
bórrame tu numero de mi iphone
no quiero estarte marcando tu bien sabes como soy
Sólo deja que tus amigas me digan que es de tu vida
Y espero que el te quiera mucho, mucho mas que yo
Si quieres pásame su numero y le marco
pa' explicarle paso a paso como elevar tu pasión
si quieres déjame explicarle de que forma acariciarte
Si quieres déjame decirle al pendejo
la forma correcta de hacerte el amor
bórrame tu numero de mi iphone
no quiero estarte marcando tu bien sabes como soy
Sólo deja que tus amigas me digan que es de tu vida
Y espero que el te quiera mucho, mucho mas que yo

Video de Te deseo lo mejor
[]




[Te deseo lo mejor chords][Te deseo lo mejor cifra]
© LaCuerda.net · aviso legal · privacidad · es · en · pt · contacto