Acordes de Guitarra » G »Generación 12 » Mientras Viva (Tab)

Mientras Viva
Generación 12

Letras, Acordes y Tabs para Guitarra, Bajo y Ukulele

  • INTRO: Bm - A - Bm - A
           Bm - A - Bm - A/C#
    
    
    ESTROFA
    
     Bm                      G
    Me encontré en la oscuridad sin ti
                  D/F#
    Hasta que encontré una luz
            E       G - A
    Fue tu luz oh Jesús
     Bm                      G
    En la cruz en ella encontré a Jesús
                D/F#       E
    Me diste tu vida Yo volví a nacer
            G      A
    Y ahora yo te cantare
    
    
    
  • INTRO: Bm - D - A - G
           Bm - D - A - G
    
    e|----------|-------2-|-------0-|-------3---|
    B|--------3-|-----3---|-----2---|-----3-----|
    G|------4---|---2-----|---2-----|---0-------|
    D|----4-----|-0-------|---------|-----------|
    A|--2-------|---------|-0-------|-----------|
    E|----------|---------|---------|-3---------|
        Bm           D        A          G
    
    INTRO 2
    Bm - D - A
    B|-6h7------------|
    G|------8-7-6-7---| (5X)
    D|--------------8-|
    
    
    ESTROFA
    
    
  • e|---------0|--------0-|-------0-|-----3-----|
    B|-------3--|------3---|-----0---|--------3--|
    G|-----2----|----2-----|---2-----|---0-------|
    D|----------|----------|---------|-----------|
    A|--2-------|--0-------|-0-------|-----------|
    E|----------|----------|---------|-3---------|
        Bm           D        A          G
    
    
    INTRO 2
    Bm - D - A
    B|-6h7------------|
    G|------8-7-6-7---|
    D|--------------8-|
    
    
    ESTROFA
    
     Bm                      G
    Me encontré en la oscuridad sin ti
    
  • ----------------------------------------------------------------------------
    
    
    Tonalidad:    G
    
    
    
    
    Pre-Intro (x2):
    
       Bm         D          A          G
    B|-----3----------3----------2-----------3-----|
    G|---4---4------2---2------2---2-------0---0---|
    D|-4----------0--------------------------------|
    A|-----------------------0---------------------|
    E|----------------------------------3----------|
      Mientras    viva                  Té cantaré |
                                                   |
       Bm         D          A          G          |
    B|-----3----------3----------2-----------3-----|
    
  • +
    ¡Colabora con nosotros!
    Envíanos tu versión de esta canción

Letra de Mientras Viva
ESTROFA
Me encontré en la oscuridad sin ti
Hasta que encontré una luz
Fue tu luz oh Jesús
En la cruz en ella encontré a Jesús
Me diste tu vida Yo volví a nacer
Y ahora yo te cantare
Mientras viva te cantare
Hasta mi último suspiro te alabare
Eres la fuente de mi alegría
A ti cantare
ESTRIBILLO
Eres todo para mí
Dueño de mi vida
Y mi alabanza... (Coro)
Con mucho amor para todos los G12
Desde Barquisimeto-Venezuela
Gracias por tu ayuda Javier Alvarado
“Na’Guará”




[Mientras Viva chords][Mientras Viva cifra]
© LaCuerda.net · aviso legal · privacidad · es · en · pt · contacto