Acordes de Guitarra » G »Generación 12 » Hacedor de milagros (Tab)

Hacedor de milagros
Generación 12

Letras, Acordes y Tabs para Guitarra, Bajo y Ukulele

  •   Dm9    A/C#m      Dm9      A     A#               Gm      F  Asus4-A
    Estoy yo aquí Tu puedes cambiar mi aflicción puedes restaurarme
       Dm9  A/C#m   Dm9  A      A#               Gm          F
    Un toque yo necesito hoy no tengo más pero puedo ver las manos de el
        Asus4     A
    Hacedor de Milagros
                                     CORO
    Dm9 A/C#m           Dm9 A/C#m         A#    Gm      F       A
    Santo,      tu eres Santo,      quien fue y es y quien vendrá
    Dm9 A/C#m           Dm9 A/C#m    A#      Gm        F
    Santo,      tu eres Santo,      sálvame, sáname estoy a tus pies
         A
    Hacedor de Milagros
    
    Dm9 - A/C#m - Dm9 - A/C#m - A# - Gm - F - A
    
       Dm9 A/C#m    Dm9    A/C#m   A#             Gm       F         A
    Me sostendré aferrado a tí  tu río Dios puede restaurarme oh uh oh..!
    
                                     CORO
    
  • Dm         A        Dm       A
    Espero    aquí Tu puedes cambiar
       Bb              Gm         F    A
    Mi aflicción puedes restaurarme
      Dm     A      Dm     A
    Un toque yo necesito hoy
      Bb                  Gm
    No tengo mas, pero puedo ver
         F               A
    Las manos de el Hacedor de Milagros
    
    Coro
    Dm  A          Dm   A
    Santo, tu eres santo
          Bb    Gm      F      A
    Quien fue y es y quien vendrá
    
    Dm  A          Dm   A
    Santo, tu eres santo
    Bb      Gm        F
    
  •      Dm          A                 Dm          A
         Espero      aquí        Tu  puedes     cambiar
    
    e|-----------------------------------------------------------
    B|-----666666----------------------666666--------------------
    G|----7-------------666666--------7------------666666--------
    D|---7------------7--------------7------------7--------------
    A|---------------7---------------------------7---------------
    E|-----------------------------------------------------------
    
    
             Bb              Gm         F    A
          Mi aflicción puedes restaurarme
    
    
    e|----------------------------------------------------------
    B|-----------------------------------999999-----------------
    G|-----777777----------333333----10------------666666--------
    D|----8---------------5--------10-------------7--------------
    A|---8---------------5-----------------------7---------------
    
  • e|-------------------------------------
    B|----------------|--------------------|
    G|----7-6-7--15´--|--7-6-7-6-7--15´-12-|
    D|----------------|--------------------|
    A|-------------------------------------
    E|-------------------------------------
    
             A#       |       Gm           |
    e-------------------------------------------|
    B-- -----------|-------------|--------------|
    G-17--------12-|-15-14-12-10-|-11´ 11 12 14-|
    D----14-15-----|-------------|--------------|
    A-------------------------------------------|
    E-------------------------------------------|
           C       |     F       |       D/F#   |
    
    
    
     e|----------------------------------------
    B|---------------------------|------------|
    
  • NOTA: RE
    
    **** LA GUITARRA ENTRA ACA **** UN POCO ANTES DE...
    
    NO TENGO MAS... PERO PUEDO VER...
    LAS MANOS DE EL HACEDOR DE MILAGROS...
    
    *******************************
    
    SANTO...TU ERES SANTO
    e|----------------------------------|------------------6---6---6---6---|
    B|-6---6---6---6---5---5---5---5----|-6---6---6---6--------------------|
    G|---7---7---7---7---6---6---6---6--*---7---7---7---7----7---7---7---7-|
    D|----------------------------------*----------------------------------|
    A|----------------------------------|----------------------------------|
    E|----------------------------------|----------------------------------|
    
    e|-----------------5---5---5---5----|----------------------------------|
    B|-6---6---6---6--------------------|-6---6---8---6---5---5---5---5----|
    G|---7---7---7---7---7---7---7---7--|---7---7---7---7---6---6---6---6--*
    
  • +
    ¡Colabora con nosotros!
    Envíanos tu versión de esta canción

Letra de Hacedor de milagros
Espero aquí Tu puedes cambiar
Mi aflicción puedes restaurarme
Un toque yo necesito hoy
No tengo mas, pero puedo ver
Las manos de el Hacedor de Milagros
Santo, tu eres santo
Quien fue y es y quien vendrá
Santo, tu eres santo
Sálvame sáname estoy a tus pies
Hacedor de Milagros
Me sostendré aferrado a ti
Tu rió DIOS puede restaurarme OOOOOUUOOH
Santo, tu eres santo
Quien fue y es y quien vendrá
Santo, tu eres santo
Sálvame sáname estoy a tus pies
Hacedor de Milagros
Santo, tu eres santo
Quien fue y es y quien vendrá
Cristo Jesucristo
Gracias salvador estoy a tus pies
Hacedor de Milagros...
LO UNICO QUE EL NECESITA ES NUESTRA FE...
SALUDOS A TODA LA RED DE JOVENES RADICALES
DE LA IGLESIA TABERNACULO DE LA FE...
RESPETANDO EL TRABAJO DE HENRY HE REALIZADO UNAS PEQUEÑAS CORRECCIONES
EN EL SOLO Y UN ACORDE DEL VERSO
UN SALUDO DIOS LES BENDIGA:
CristoSi




[Hacedor de milagros chords][Hacedor de milagros cifra]
© LaCuerda.net · aviso legal · privacidad · es · en · pt · contacto