Acordes de Guitarra » G »garigoles » Problemas (Tab)

Problemas
garigoles

Letras, Notas, Punteos, Tablaturas y Acordes de Guitarra (Tabs & Chords)

  • Letra y Acordes
    ----------------------------------------------------
    
     empieza asi...
    
     Intro:
    
     LA DO# RE MI
                   (se acompaña un rekinto con un potente
                     pedal)
    
    ...AL  GRANO!!!
    
    LUEGO VA ASÍ:
    
     LA                  DO#
    Cuando llegas de la escuela
            RE      MI
    siempre con esa misma cara,
     LA                   DO#
    y si dices: -ya esoy harta
    
  • Tablatura
      A5                  C#5     D5                    E5(7)
      cuando llegas de la escuela siempre con esa misma cara
      A5                  C#5   D5                E5(7)
      y si dices ya estoy arta no dormi en la madrugada
      
      Vuelve al intro    X2
      
      coro
      D5     E5(7)              Fm5(9)
      en tu casa decian que con otra yo te engañaba 
      D5           E5(7) Fm5(9)                                X2
      y que tu padrastro te castigaba
    
      
      bridge
      ---------------------
      ---------------------
      -------9--7--2-------
      ----7--9--7--2-------
      ----7--7--5--0-------
    
  • Tab p/Bajo
    ES MUY FACIL Y EL BAJO SOLO SIGUE A LA GUITARRA
    
    riff 1 ... 
    cundo llegas...
    G|---------------------------------------------|
    D|---------------------------------------------|
    A|------------4-4-4-4-4-5-5-5-5-5-7-7-7-7-7----|
    E|--5-5-5-5-5----------------------------------|
    
    fiff 2 ...
    en tu casa decian...
    G|---------------------------------------------|
    D|---------------------------------------------|
    A|--5-5-5-5-5-7-7-7-7-7-9-9-9-9-9-9-9-9-9-9----|
    E|---------------------------------------------|
    
    coro...
    no quiero escuchar...
    G|---------------------------------------------|
    D|---------------------------------------------|
    A|--7-5----------------------------------------|
    E|------5-5------------------------------------|
    
    
    riff 1 ... 
    y si hablas al trabajo...
    G|---------------------------------------------|
    D|---------------------------------------------|
    A|------------4-4-4-4-4-5-5-5-5-5-7-7-7-7-7----|
    E|--5-5-5-5-5----------------------------------|
    
    fif
  • +
    ¡Colabora con nosotros!
    Envíanos tu versión de esta canción

Letra de Problemas
empieza asi...
(se acompaña un rekinto con un potente
pedal)
...AL GRANO!!!
LUEGO VA ASÍ:
Cuando llegas de la escuela
siempre con esa misma cara,
y si dices: -ya esoy harta
no dormí en la madrugada.
Que en tu casa decían
que con otra yo te engañaba
Y que tu padrastro
te casti - gaba
No quiero escuchar
mira nada mas
(se repiten mismos acordes, solo cambia la letra)
Y si hablas al trabajo...
Que me corte el pelo
que me ajuste el pantalon
que tengo que ir
a esa reunion
que no te agarre aki
que no te agarre alla
pórke tengo que pedir
lo ke me dejen de dar
que te acompañe a misa
todos los dimingos
y que no me de risa
que siempre sea lo mismo.
'Solo problemas me das,
yo no me voy a casar'
Y ESO ES TODO PUNKS!!
A TOKAR DELOS GARIGOLES O 'GARIFRIJOLES' COMO DICE EL JOVITO!!
KAMARA NOS VEMOS EN EL ROXY!!
www.geocities.com/el_genes
www.frantica.com/garigoles
'GENE§PUNK'



© LaCuerda.net · Aviso Legal · Privacidad