Acordes de Guitarra » G »garigoles » Fantasma Violador (Tab)

Fantasma Violador
garigoles

Letras, Notas, Punteos, Tablaturas y Acordes de Guitarra (Tabs & Chords)

  • Tablatura
           A5     C5     D5      G5
      ----------------------------------
      ----------------------------------
      ---2-2-2--5-5-5--7-7-7------------
      ---2-2-2--5-5-5--7-7-7--5-5-5-5---
      ---0-0-0--3-3-3--5-5-5--5-5-5-5---
      ------------------------3-3-3-3---
    
          Coro
         
           A5        C5        F5(8)      E5(7)
      --------------------------------------------
      --------------------------------------------
      ---2-2-2-2--5-5-5-5--10-10-10-10--9-9-9-9---
      ---2-2-2-2--5-5-5-5--10-10-10-10--9-9-9-9---
      ---0-0-0-0--3-3-3-3--8--8--8--8---7-7-7-7---
      --------------------------------------------
      
      VERSO 1
      QUE ALGO ESTA SUCEDIENDO
    
  • +
    ¡Colabora con nosotros!
    Envíanos tu versión de esta canción

Letra de Fantasma Violador
VERSO 1
QUE ALGO ESTA SUCEDIENDO
EN LA INMORAL CIUDAD HU HU HU HU
NADI ESTA ASALBO EN LA NOCHE
PORQUE SE LO HAN DE VIOLAR HU HU HU HU
DICEN QUE NO ES HUMANO
ESTEN PENDIENTES DE SU ANO HU HU HU HU
UN ESPECTRO VIOLADOR
QUE NO SE PONE CONDON HU HU HU HU
POR LAS DOCE DE LA NOCHE
SIEMPRE SALE SIEMPRE SALE
UN FANTASMA CHOCARRERO
CUIDA BIEN DE TU TRASERO
SI VAS CON TUS HERMANAS
CUIDALES YA BIEN LAS NALGAS
UN ANIMAL DE SAYULA
SALE ANTES DE DAR LA UNA
HE HE HE HE
EL FANTASMA VIOLADOR
HE HE HE HE
EL FANTASMA VIOLADOR
VERSO 2
NO DISTINGUE LAS EDADES
PARA COMETER MALDADES HU HU HU HU
SE ABRAME LA ODONTELLA
O BORRACHO CON BOTELLA HU HU HU HU
UN FANTASMA MUY OJETE
QUE TE DEJA UN BOQUETE HU HU HU HU
NO SE SABE SI ES ALARDE
PERO QUE LA TIENE GRANDE HU HU HU HU

BRIDGE
SE A VISTO EN EL PARQUE ALCALDE
DIEN QUE LA TIENE GRANDE
41 VICTIMAS HAN CAIDO
BAJO EL MACHETE DEL FANTASMA
POR LAS DOCE DE LA NOCHE
SIEMPRE SALE SIEMPRE SALE
UN FANTASMA CHOCARRERO
CUIDA BIEN DE TU TRASERO
SI VAS CON TUS HERMANAS
CUIDALES YA BIEN LAS NALGAS
UN ANIMAL DE SAYULA
SALE ANTES DE DAR LA UNA
HE HE HE HE
EL FANTASMA VIOLADOR
HE HE HE HE
EL FANTASMA VIOLADOR
HE HE HE HE
EL FANTASMA VIOLADOR
HE HE HE HE
EL FANTASMA VIOLADOR
HE HE HE HE
EL FANTASMA VIOLADOR
HE HE HE HE
EL FANTASMA VIOLADOR

[ver todas las canciones]


© LaCuerda.net · Aviso Legal · Privacidad
DINAMICO