Acordes de Guitarra » G »Gaias Pendulum » Soledad (Tab)

Soledad
Gaias Pendulum

Letras, Acordes y Tabs para Guitarra, Bajo y Ukulele

  • Am - F - D - E
    
    
    Am             F
     Vuelvo a mi soledad
    
    D                      E
     Vuelvo al silencio de mi cantar
    
    Am                     F
     Vuelvo a la tierra de sombras sin fin
    
    D                         E
     Vuelvo a encontrarme con mi verdad
    
    Am           F
     Canto en mi soledad
    
    D                       E
     Igual que un elfo en la oscuridad
    
  • E: 5---5---5--5/1---1---1---1-----------------------
    A: ---------------------------5---5---5--7---7---7/2
    D: -------------------------------------------------
    G: -------------------------------------------------
    
    E: 5---5---5--5/1---1---1---1-----------------------
    A: ---------------------------5---5---5--7---7---7/2
    D: -------------------------------------------------
    G: -------------------------------------------------
    
    E: 5---5---5--5/1---1---1---1-----------------------
    A: ---------------------------5---5---5--7---7---7/2
    D: -------------------------------------------------
    G: -------------------------------------------------
    
    E: 5---5---5--5/1---1---1---1-----------------------
    A: ---------------------------5---5---5--7---7---7/2
    D: -------------------------------------------------
    G: -------------------------------------------------
    
    E: 5---5---5--5/1---1---1---1-----------------------
    A: ---------------------------5---5---5--7---7---7/2
    D: ---------------------------------------
  • +
    ¡Colabora con nosotros!
    Envíanos tu versión de esta canción

Letra de Soledad
Vuelvo a mi soledad
Vuelvo al silencio de mi cantar
Vuelvo a la tierra de sombras sin fin
Vuelvo a encontrarme con mi verdad
Canto en mi soledad
Igual que un elfo en la oscuridad
Vuelo a lo lejos como ave de luz
Que se ha perdido en la inmensidad
En el coro haran un riff compuesto por los siguientes acordes
Riff 1
En la parte final del coro hay una variación
por lo tanto cambiaremos a los siguientes acordes
Riff 2
Riff 1
Sin Alas, sin poder
Riff 2
Escucho mi dolor
Lloro como un elfo
Herido por el mal
Luchan en mi interior
Igual que el viento con el mar
Mis ilusiones Heridas Están
Y Hoy Naufragan en mi llorar
Triunfante en un altar
Se eleva alto mi rencor
Desde la sombra gobierna mi ser
Soy prisionero de su poder
Riff 1
Sin Alas, sin poder
Riff 2
Escucho mi dolor
Lloro como un elfo
Herido por el mal
Riff 2
Vuelo a lo lejos
como ave de luz
que se ha perdido
En la inmensidad
Busco Algun Lugar
Sin encontrar
Saludos desde El Salvador a toda la raza metalera
Larga Vida a Gaias Pendulum!

Video de Soledad
[]




[Soledad chords][Soledad cifra]
© LaCuerda.net · aviso legal · privacidad · es · en · pt · contacto