Tablatura para Guitarra de Los Fundamentalistas del Aire Acondicionado: Vino Mariani
Conexión · Inscripción
Letras y Acordes
Pantalla Completa
Imprimir
Versión Texto
Añadir Favorito
Otras Versiones

Mostrar Diagramas
Desfile Automático
Manipular Acordes
Formato del Texto


Vino Mariani(TAB)

Los Fundamentalistas del Aire Acondicionado

calidad:
fdaa0323
AUTOR: Carlos Indio Solari
ALBUM: El Perfume de la Tempestad (2010)
Enviado por Matias
                                 VINO MARIANI

                          VIOLAS DE BALTASAR COMOTTO

ESTA TAB ESTA HECHA PARA QUE COMPLETEN LAS QUE ESTAN DANDO VUELTAS
QUE CORRESPONDEN A LOS ARREGLOS DE GASPAR BENEGAS, ESTA VERSION ES PARA
QUE LO PUEDAN HACER A 2 VIOLAS Y QUE SUENE COMO EL DISCO, SALUDOS!!!

NOTE QUE SE CORREN LAS LINEAS (CUERDAS) SI LAS VEN CORRIDAS, SON ARMONIAS
ESOS QUE ESTAN PUESTOS NO MELODIAS.



                           INTRO  (RIFF QUE ACOMPAÑA A WHAMMY)

E||-------------------||---------------------------|-----------------------|
B||-------------------||---------------------------|-----------------------|
G||-------------------||*--------------------------|-----------------------|
D||-------------------||*--5-----7-----5--7--------|--5--7-----5--7--------|
A||-------------------||---------------------------|-----------------------|
E||-------------------||---------------------------|-----------------------|



-------------------------|----------------------|-----------------------|
-------------------------|----------------------|-----------------------|
-------------------------|--5-------------------|-----------------------|
--5--7-----5--7----5--7--|-------7----5---------|-----------------------|
-------------------------|-----------------7----|--5--7-----5--7--------|
-------------------------|----------------------|-----------------------|


-----------------------|-------------------------|-----------------------||
-----------------------|-------------------------|-----------------------||
-----------------------|-------------------------|--5----7----9---------*||
-----------------------|--5--7-----5--7----5--7--|-----------------7----*||
--5--7-----5--7--------|-------------------------|-----------------------||
-----------------------|-------------------------|-----------------------||


    LINEA Y ESTRIBILLOS Y BASE DE SOLO DE SAXO
                        PM  PM  PM  PM               PM PM PM PM

---------------------------------------------|------------------------|
---------------------------------------------|------------------------|
*--10------------------10--10--10--10--10----|--7----7--7--7--7--7----|
*--10------------------10--10--10--10--10----|--7----7--7--7--7--7----|
----8-------------------8---8---8---8---8----|--5----5--5--5--5--5----|
---------------------------------------------|------------------------|


       PM PM PM PM              PM PM PM PM

------------------------|-------------------------||
------------------------|-------------------------||
------------------------|------------------------*||
--7----7--7--7--7--7----|--7----7--7--7--7--7----*||
--7----7--7--7--7--7----|--7----7--7--7--7--7-----||
--5----5--5--5--5--5----|--5----5--5--5--5--5-----||


   BASE SOLO DE GASPAR BENEGAS CON WHAMMY (ESCUCHEN EL BAJO)
               PM PM PM PM PM

---------------------------------|-----------------------|
---------------------------------|-----------------------|
*--7-----------7--7--7--7--7--5--|-----7--7--5--7--------|
*--7-----------7--7--7--7--7--5--|-----7--7--5--7--------|
---5-----------5--5--5--5--5-----|-----------------------|
---------------------------------|-----------------------|


       PM PM PM PM PM                                    PM PM PM PM PM

-------------------------|-----------------------|-------------------------|
-------------------------|-----------------------|-------------------------|
--2----2--2--2--2--2--0--|-----2--2--0--2--------|--7----7--7--7--7--7--5--|
--2----2--2--2--2--2--0--|-----2--2--0--2--------|--7----7--7--7--7--7--5--|
--0----0--0--0--0--0-----|-----------------------|--5----5--5--5--5--5-----|
-------------------------|-----------------------|-------------------------|


                               PM PM PM PM PM

-----------------------|-------------------------|------------------------||
-----------------------|-------------------------|------------------------||
-----7--7--5--7--------|--2----2--2--2--2--2--0--|-----2--2--0--2--------*||
-----7--7--5--7--------|--2----2--2--2--2--2--0--|-----2--2--0--2--------*||
-----------------------|--0----0--0--0--0--0-----|------------------------||
-----------------------|-------------------------|------------------------||


   SOLO BALTASAR COMOTTO (ESCUCHEN LAS NOTAS LIGADAS DE COMPAS A COMPAS)

---------------------------------|---------------------------|
---------------------------------|-----------15b-------15-13-|
--12---------------14~-----------|---------------------------|
---------------14----------------|---------------------------|
---------------------------------|---------------------------|
---------------------------------|---------------------------|



-----------15-----------|-------------------|--15b--------15br----12------|
--15b-------------------|-------------------|-------------------------15--|
------------------------|-------------------|-----------------------------|
------------------------|-------------------|-----------------------------|
------------------------|-------------------|-----------------------------|
------------------------|-------------------|-----------------------------|



----------------------------|--------------15--15--17--17--19--|
-------13-------------------|--15--17--17----------------------|
-----------14--12--14--L----|----------------------------------|
----------------------------|----------------------------------|
----------------------------|----------------------------------|
----------------------------|----------------------------------|


                              LINEA (TIPAS Y BROMISTAS...)
                                                        PM PM PM PM

--20b------20------------||--22b----------------|------------------------|
-------------------------||---------------------|------------------------|
------------------------*||---------------------|--7----7--7--7--7--7----|
------------------------*||---------------------|--7----7--7--7--7--7----|
-------------------------||---------------------|--5----5--5--5--5--5----|
-------------------------||---------------------|------------------------|


       PM PM PM PM              PM PM PM PM

------------------------|------------------------||
------------------------|------------------------||
------------------------|------------------------||
--7----7--7--7--7--7----|--7----7--7--7--7--7----||
--7----7--7--7--7--7----|--7----7--7--7--7--7----||
--5----5--5--5--5--5----|--5----5--5--5--5--5----||

ESPERO QUE LOS DISFRUTEN,
Y QUE LO PUEDAN HACER A 2 VIOLAS, LOS ARREGLOS DE GASPAR LOS VOY A SUBIR,
O BIEN CORREGIR LAS VERSIONES QUE YA ESTAN....
Este fichero es trabajo propio de su transcriptor y representa su interpretación personal de la canción. El material contenido en esta página es
para exclusivo uso privado, por lo que se prohibe su reproducción o retransmisión, así como su uso para fines comerciales.

© LaCuerda.net · Aviso Legal · Privacidad