Acordes de Guitarra » F »Los Fundamentalistas del Aire Acondicionado » Amnesia (Tab)

Amnesia
Los Fundamentalistas del Aire Acondicionado

Letras, Acordes y Tabs para Guitarra, Bajo y Ukulele

  •                (LA/DO#  RE6  LA/DO#  RE6  LA/DO#  SIm )x2
    
    SIm                       LA
    Su amnesia está bajo un aguacero hoy
    SIm                         LA
    Y así hace del pichicho un profeta cruel
    SIm                    LA
    Vuelcan su jugo allí y luego se van
    SIm                  LA
    La piba esa, él y un atún
    
    
    LA/DO# RE6   LA/DO#  RE6             SIm
               Un agu    jero allí de un año
    
    
    LA/DO# RE6   LA/DO#    RE6                SIm
               Ningún re   cuerdo... nada... nada
    
    
    
  • e|----------------------------------------------|
    B|----------------------------------------------|
    G|----------------------------------------------|
    D|-----9-7-6-7-6-------------7-5-4-5-4----------|
    A|---9-----------9-9-7-6---7-----------7-7------|
    E|-7---------------------5-----------------5-6--|
    
         Riff 2
    
    E|---------------------------------|
    B|---5-3---5-3--------3-2---3-2----|
    G|-------4-----4-4h2------2-----2--|
    D|---------------------------------|
    A|---------------------------------|
    E|-7-------------------------------|
    
       A/C#        D6
    E|--2---|   E|-----|
    B|--2---|   B|--3--|
    G|--2---|   G|--4--|
    
  • E|----------------------------------------------|
    B|----------------------------------------------|
    G|----------------------------------------------| x2
    D|-----9-7-6-7-6-------------7-5-4-5-4----------|
    A|---9-----------9-9-7-6---7-----------7-7------|
    E|-7---------------------5-----------------5-6--|
    
    
    Riff 2
    E|---------------------------------|
    B|---5-3---5-3--------3-2---3-2----|
    G|-------4-----4-4h2------2-----2--| x1
    D|---------------------------------|
    A|---------------------------------|
    E|-7-------------------------------|
    
    
    ( A/C# D6 A/C# D6 A/C# Bm) x2
    
    Bm                            A
    
  • Intro:
    E------------------------------------------------------------------------------------------I
    B------------------------------------------------------------------------------------------I
    G--------4--2--1--2--1------------------------------------------------------------------I            x2
    D------4------------------4--4--2—1-----7—5—4—5---4---------------------------I
    A—2-----------------------------------7-------------------------7----------------------I
    E-------------------------------------5-------------------------------4—5—6----------I
    
    E------------------------------------------------------------------------------------------I
    B---5—3--------5---3-------------------------------------------------------------------I
    G-----------4-------------4----4/2----7--6----7--6--------------------I
    D---------------------------------------------------7----------7--------------------------I
    A-------------------------------------------------------------------------------
  • E|----------------------------------------------|
    B|----------------------------------------------|
    G|----------------------------------------------| x2
    D|-----9-7-6-7-6-------------7-5-4-5-4----------|
    A|---9-----------9-9-7-6---7-----------7-7------|
    E|-7---------------------5-----------------5-6--|
    
    
    INTRO 2
    E|---------------------------------|
    B|---5-3---5-3--------3-2---3-2----|
    G|-------4-----4-4h2------2-----2--| x1
    D|---------------------------------|
    A|---------------------------------|
    E|-7-------------------------------|
    
    
    ( A/C# D6 A/C# D6 A/C# Bm) x2
    
    Bm                            A (riff 1)
    
  • +
    ¡Colabora con nosotros!
    Envíanos tu versión de esta canción

Letra de Amnesia
Su amnesia está bajo un aguacero hoy
Y así hace del pichicho un profeta cruel
Vuelcan su jugo allí y luego se van
La piba esa, él y un atún
Un agu jero allí de un año
Ningún re cuerdo... nada... nada
No actúa por amor ni por esplendor
Se raja al culeódromo a recordar
Se va a fumar allí el purete mejor
Y va a matar el tiempo así...
Mareos que dan gran jaleo
(Modales que son malas mañas)
Ningun recuerdo, nada, nada
Escamas que al fin, huyen de su piel
Lagrimas que le muerden el corazon
Van a ver quien se come a quien esta vez
La piba esa el y un atun
Riff 1:
Riff 2:
LOS ACORDES RAROS SON ESTOS:
x x x x
| | | | | | (I) | | | | | |
| | * * * * | | | | * |
| | | | | | | | * * | |
| * | | | | | * | | | |
| | | | | | | | | | | | (V)
GABRIEL MOYANO DE PUERTO MADRYN
SALUDOS A CHUBUTTTTTTTTTT!!!!!!!!!!




[Amnesia chords][Amnesia cifra]
© LaCuerda.net · aviso legal · privacidad · es · en · pt · contacto