Acordes de Guitarra » F »La Fuga » Madrid (Tab)

Madrid
La Fuga

Letras, Acordes y Tabs para Guitarra, Bajo y Ukulele

  • REm
    Dame para olvidar
                   LAm
    Un sitio menos gris
    SOLm
    Llevo aquí sólo dos días
    LAm                REm
    Y se me ha olvidado reír
    
    
    REm
    Hoy no estoy para nadie
                   LAm
    Nadie está para mí
    SOLm
    Este corazón podrido
    LAm                REm
    Se ha cansado de vivir
    
    
    
  •       REm           LAm     SOLm     LAm    REm 
    
    
    e|--x--x5--------x--x5----x--x3----x--x5----x--55--55--5-5--55------------|
    B|--x--x6--------x--x5----x--x3----x--x5----x--66--66--6-6--66------------|
    G|--x--x7--------x--x5----x--x3----x--x5----x--77--77--7-7--77------------|
    D|--x--x7--------x--x7----x--x5----x--x7----x--77--77--7-7--77------------|
    A|--x--x5--------x--x7----x--x5----x--x7----x--55--55--5-5.-55------------|
    E|---------------x--x5----x--x3----x--x5-------------------.--------------|
    (lo ultimo es chunguillo, escuchadlo y si no os sale simplificadlo)
    
    
    --Dame pa olvidar un sitio menos gris. Llevo aki solo dos dias y se m’a 
    --olvidao reir 
    
    
          REm           LAm     SOLm     LAm    REm 
    
    e|--x--x5--------x--x5----x--x3----x--x5----x--55--5-5----------------------|
    B|--x--x6--------x--x5----x--x3----x--x5----x--66--6-6----------------------|
    
  • +
    ¡Colabora con nosotros!
    Envíanos tu versión de esta canción

Letra de Madrid
Dame para olvidar
Un sitio menos gris
Llevo aquí sólo dos días
Y se me ha olvidado reír
Hoy no estoy para nadie
Nadie está para mí
Este corazón podrido
Se ha cansado de vivir
ESTRIBILLO
No fue buena idea venir hasta aquí
No te iba a olvidar por venir a Madrid
Tan seguro de mi, tan seguro de no perder
La suerte se burla de mi otra vez
En forma de mujer
Me pierdo entre las noches,
Intento olvidar en otra piel,
Algo no va bien
Mentiras que quise creer.
Está es tu última canción,
Servirá para decir adiós
Ya me acostumbré a vivir así
Dándole trabajo al corazón.
ESTRIBILLO
No fue buena idea venir hasta aquí
No te iba a olvidar por venir a Madrid
Tan seguro de mi, tan seguro de no perder
La suerte se burla de mi otra vez
En forma de mujer
Es mejor no mirar el reloj
Es mejor no olvidar con alcohol
Tantas veces pensé que podía ir mejor,
Tantas veces caí que he perdido el control.
ESTRIBILLO
No fue buena idea venir hasta aquí
No te iba a olvidar por venir a Madrid
Tan seguro de mi, tan seguro de no perder
La suerte se burla de mi otra vez
En forma de mujer




[Madrid chords][Madrid cifra]
© LaCuerda.net · aviso legal · privacidad · es · en · pt · contacto
DINAMICO