Acordes de Guitarra » F »Fran reca » Vino y cerveza (Tab)

Vino y cerveza
Fran reca

Letras, Notas, Punteos, Tablaturas y Acordes de Guitarra (Tabs & Chords)

  • Tablatura
      G                       G
    |-----------------------|---------------------|
    |-------0-----0h1-1-----|-------0-----0h1-1h3-|
    |-----0-----0-------0---|-----0-----0---------|
    |---0-----0-----------0-|---0-----0-----------|
    |-----------------------|---------------------|
    |-3---------------------|-3-------------------|
    
      C
    |-----------0----------------------|
    |-3-----(3)-----------1---------0--|
    |---(0)-----------(0)-------(0)----|
    |-------------(0)-------(0)--------|
    |-3--------------------------------|
    |----------------------------------|
    
      C                     D/F#                          C           D
    |---------------------|--------------0----------|-------3-----------5-----|
    |-------0-----0h1-1h3-|-------3-------------2---|-----1-----1-----3-----3-|
    |-----0-----0---------|-----2-----(2)-----2---2-|---0-----0-----0-----0---|
    
  • +
    ¡Colabora con nosotros!
    Envíanos tu versión de esta canción

Letra de Vino y cerveza
Mas o menos utilicen el intro para las estrofas
RECONOZCO
QUE HE BEBIDO DEMASIADO
DE TUS OJOS DE TUS LABIOS
QUE TENGO EBRIO EL CORAZÓN
RECNOZCO
QUE AL AMAR SOY DESPISTADO
EGOÍSTA Y ALOCADO
MAS NO DUDES DE MI AMOR
RECONOZCO
QUE LE CUENTO A LA GUITARRA
COSAS QUE A TI NO TE CUENTO
PERO QUE LUEGO SABRAS
RECONOZCO
QUE A VECES TE ESCONDO EL MUNDO
QUE TE TENGO AQUI GUARDADA
Y QUE AL BESARME TU HALLARAS
RECONOCEME TU QUE ME AMAS
DE LA MISMA MANERA QUE YO
Y QUE ANDAMOS LOS DOS MUY BORRACHOS
LOS DOS MUY BEBIDOS, DE ABRAZO Y SUDOR
Y AUNQUE SOMOS LOS DOS MUY DISTINTOS
PARA TI EL VINO TINTO, Y LA CERVEZA YO
RECONOZCO
QUE A VECES METO LA PATA
QUE ME QUEDO AQUÍ SENTADO
VIENDO LA TELEVISIÓN
CUANDO DEBO
COMO UN LOCO ACORRALARTE
COMO UN BOBO YO BESARTE
EN VEZ DE TANTA CANCIÓN
RECONOZCO
QUE ME EQUIVOCO TANTO
QUE ME PASO TIEMPO EN VANO
FRENTE AL ORDENADOR
Y QUE LA VIRTUALIDAD
ES UNA MANERA
DE PERDERME LO QUE AFECTA
REALMENTE AL CORAZÓN
6ª 5ª 4ª 3ª 2ª 1ª

Videos de Vino y cerveza
[ver más videos]



© LaCuerda.net · Aviso Legal · Privacidad
DINAMICO