Tablatura para Bajo de Fobia: el Microbito
Conexión · Inscripción
Letras y Acordes
Pantalla Completa
Imprimir
Versión Texto
Añadir Favorito
Otras Versiones

Mostrar Diagramas
Desfile Automático
Formato del Texto


el Microbito(BAJ)

Fobia

calidad:
fobi0083
AUTOR: Paco Huidobro
ALBUM: Fobia (1990)
Enviado por juan
intro:
lam-sol

4:-5---5---5---5-5---3---3---3---3-3------
3:---7---7---7-----7---5---5---5------5----
2:-------------------------------------------
1:-------------------------------------------


verso:
do-lam-sol
  
4:----3----------3---3----------3-5---5---5---5-5---3---3---3---3-3---
3:--3---3-3--------3---3-3----------7---7--7------7---5---5---5-----5-
2:-----------5-5------------5-5------------------------------------------
1:------------------------------------------------------------------------


coro:
fa-sol-do-mim--lam-mim-fa-sol
    
4:-1----3------------------5-5-5-3-3-3-1-3-1-0-1-2-3-5-3---
3:------------3-3-3-2-2-2-------------------------------------
2:--------------------------------------------------------------
1:--------------------------------------------------------------


eso es todo el bass de el microbito la verdad lo mas 
chido son los versos, tambien tengo la rola de miel 
de escorpion por si a alguien le interesa puede escribirme
saludos a todo san diego.
 pero muy especialmente a una chava
su nombre se me hace bien chido (siara) la verdad no se
 si este bien escrito pero esta rola va para ti.
puedes buscar la letra por que la verdad me gustaria
ser tu microbito y nadar en tu ombliguito.
Este fichero es trabajo propio de su transcriptor y representa su interpretación personal de la canción. El material contenido en esta página es
para exclusivo uso privado, por lo que se prohibe su reproducción o retransmisión, así como su uso para fines comerciales.

© LaCuerda.net · Aviso Legal · Privacidad