Tablatura para Guitarra de Fito & Fitipaldis: Whisky Barato
Conexión · Inscripción
Letras y Acordes
Pantalla Completa
Imprimir
Versión Texto
Añadir Favorito
Otras Versiones

Mostrar Diagramas
Desfile Automático
Manipular Acordes
Formato del Texto


Whisky Barato(TAB)

Fito & Fitipaldis

calidad:
f_fi0172
AUTOR: Fito Cabrales
ALBUM: Lo mas lejos, a tu lado (2003)
Enviado por jorge
bueno, aqui os dejo la transcripcion que hice de esta
gran cancion para tocarla con mi grupo
La intro en realidad la hacen dos guitarras pero aki
he aunado ambas para que pueda sonar igual a una sola
y no es tampoco mucho mas dificil

(la s es de slide de union entre dos notas)
esta es la intro

x2

E||----------------------------|--------------------------|
B||-----0--1s-3-0--1-----------|--------------------------|
G||--------2s-4----2--0--------|--------------------------|
D||----------------------2--0--|--------------------------|
A||----------------------------|--5--x--7--x--5--x--7--5--|
E||----------------------------|--3--3--3--3--3--3--3--3--|

x2

----------------------------|--------------------------|
-----0--1s-3-0--1-----------|--------------------------|
--------2s-4----2--0--------|--------------------------|
----------------------2--0--|--5-----7-----5-----7--5--|
----------------------------|--3--3--3--3--3--3--3--3--|
----------------------------|-----x-----x-----x--------|



----------------------------|--------------------------|
-----0--1s-3-0--1-----------|--------------------------|
--------2s-4----2--0--------|--------------------------|
----------------------2--0--|--------------------------|
----------------------------|--5--x--7--x--5--x--7--5--|
----------------------------|--3--3--3--3--3--3--3--3--|



----------------------------|--------------------------|
-----0--1s-3-0--1-----------|--------------------------|
--------2s-4----2--0--------|--------------------------|
----------------------2--0--|--7--x--9--x--7--x--9--7--|
----------------------------|--5--5--5--5--5--5--5--5--|
----------------------------|--------------------------|


 ----------------------------|--------------------------|
 -----0--1s-3-0--1-----------|--------------------------|
 --------2s-4----2--0--------|--------------------------|
 ----------------------2--0--|--------------------------|
 ----------------------------|--5--x--7--x--5--x--7--5--|
 ----------------------------|--3--3--3--3--3--3--3--3--|

----------------------------------------------------------
----------------------------------------------------------


Durante la estrofa la cancion se apoya principalmente en el bajo,
pero si os apetece tocar
con vuestra guitarra la cancion entera pues podeis mantener el ritmo
de blues.


G5 Cuando ya no sirven las palabras
D5 Cundo se ha rajado la ilusión me emborracho con whisky barato
G5 a ver si me escuece el corazón
G5 Quiero ser tan duro como el hierro
D5 pero me derrito con tu olor. Quise hacer un cielo en el infierno
G5 a ver si acertaba por error
C5 G5 Ya no queda nada entre tu y yo
D5 G5 ya no queda nada entre los dos x2 Las otras dos estrofas son exactamente iguales de armonía (muy sencillita como veis) y si lo haceis con el ritmo de blues de la intro os dareis cuenta de lo bien que suena. luego esta la parte:
G5 Y de tu cariño, de tu amor, de tu alegría
D5 de tu calor de vida mía, de te quiero tanto, al final, lo único que me quedó es la canción
G5 que estoy cantando Ademas de esta que queda bien, en la cancion hay una guitarra que juega en limpio durante la estrofa. Es muy entretenido de tocar tal como lo transcribi yo, aunk ya os digo esto es mejor mas que nada cuando hay dos guitarra porque sino suena a poco. hace esto:
G G PM PM PM PM PM PM PM PM PM PM PM PM PM PM PM PM --------------------------|--------------------------| --------------------------|--------------------------| --------------------------|--------------------------| --------2-----5--2-----2--|--------2-----5--2-----2--| -----5-----5--------5-----|-----5-----5--------5-----| --3-----------------------|--3-----------------------|
D D PM PM PM PM PM PM PM PM PM PM PM PM PM PM PM PM --------------------------|--------------------------| --------------------------|--------------------------| --------------7-----------|--------------7-----------| -----4--7--4-----7--4--7--|-----4--7--4-----7--4--7--| --5-----------------------|--5-----------------------| --------------------------|--------------------------|
D D PM PM PM PM PM PM PM PM PM PM PM PM PM PM PM PM --------------------------|--------------------------| --------------------------|--------------------------| --------------7-----------|--------------7-----------| -----4--7--4-----7--4--7--|-----4--7--4-----7--4--7--| --5-----------------------|--5-----------------------| --------------------------|--------------------------|
D G PM PM PM PM PM PM PM PM --------------------------|-----| --------------------------|-----| --------------7-----------|-----| -----4--7--4-----7--4--7--|-----| --5-----------------------|-----| --------------------------|--3--| Por ultimo os añado el riff del final de la cancion x4 x2 -------------------------|-------------------------|---------------------| ----------------------8--|--12------------------8--|--11-----------------| ----------------7--9-----|----------------7--9-----|---------------------| -------------------------|-------------------------|---------------------| -------------------------|-------------------------|---------------------| -------------------------|-------------------------|---------------------| x2 x2 ----------------------------|-----------------------------| ----------------12--12--12--|--10------------12--12--12--8| ----------------------------|-----------------------------| ----------------------------|-----------------------------| ----------------------------|-----------------------------| ----------------------------|-----------------------------| x4 x2 -------------------------|-------------------------|---------------------| ----------------------8--|--12------------------8--|--11-----------------| ----------------7--9-----|----------------7--9-----|---------------------| -------------------------|-------------------------|---------------------| -------------------------|-------------------------|---------------------| -------------------------|-------------------------|---------------------| ----------------------------|------------------------------| ----------------12--12--12--|--10------------12--12--12--10| ----------------------------|------------------------------| ----------------------------|------------------------------| ----------------------------|------------------------------| ----------------------------|------------------------------| ----------------------|------------------------------| ----------------------|--8--8--10--12--8--12--10-----| -------------------7--|---------------------------7--| ----------------------|------------------------------| ----------------------|------------------------------| ----------------------|------------------------------| ---------------------15----|-------|| --8--8--10--12--8----------|-------|| ---------------------------|-------|| ---------------------------|-------|| ---------------------------|-------|| ---------------------------|-------|| Si alguién es aficionado al guitar pro y quiere ver la tablatura completa, k me escriba y se la paso...
Este fichero es trabajo propio de su transcriptor y representa su interpretación personal de la canción. El material contenido en esta página es
para exclusivo uso privado, por lo que se prohibe su reproducción o retransmisión, así como su uso para fines comerciales.
© LaCuerda.net · Aviso Legal · Privacidad