Tablatura para Guitarra de Fito & Fitipaldis: Vamono
Conexión · Inscripción
Letras y Acordes
Pantalla Completa
Imprimir
Versión Texto
Añadir Favorito
Otras Versiones

Mostrar Diagramas
Desfile Automático
Manipular Acordes
Formato del Texto


Vamono(TAB)

Fito & Fitipaldis

calidad:
f_fi0291
AUTOR: Adolfo Cabrales
ALBUM: Lo más Lejos... a tu lado (2003)
Enviado por Rafa
Esto es solamente la guitarra acústica de Fito, es posible que intente
sacar los demás instrumentos

Los asteriscos indican que con esos acordes se toca un rasgueo rítmico
que no se puede representar en la tablatura, pero que escuchando la canción
se saca fácilmente




-----------------------------------------------------------
-------------3-------------7--------------3-------------7--
-2-----------3-2-----------7--2-----------3-2-----------7--
---4-2-0-----3---4-2-0-----7----4-2-0-----3---4-2-0-----7--
---------4-------------4-2------------4-------------4-2----
-----------3-3-------------7------------3-3-------------7--

             *             *              *             *
-----------------------------------------------------------
-------------7-------------7--------------7-------------7--
-----6-7-9---7-----6-7-9---7------6-7-9---7-----6-7-9---7--
-7-9---------6-7-9---------7--7-9---------6-7-9---------7--
-----------7-7--------------------------7-7----------------
-------------------------7-7--------------------------7-7--


-----------------------------------------------------------
-------------3-------------7--------------3-------------7--
-2-----------3-2-----------7--2-----------3-2-----------7--
---4-2-0-----3---4-2-0-----7----4-2-0-----3---4-2-0-----7--
---------4-------------4-2------------4-------------4-2----
-----------3-3-------------7------------3-3-------------7--

             *         *
--------------------------|
-------------7---------7--|
-------------7---------7--|
-7-7-7-7-7-6-6-6-6-6-7-7--|x5
-------------7------------|
-----------------------7--|

             *
------------------------|
-------------7----------|
-------------7-----7----|x22
-7-7-7-7-7-6-6-9-9---9--|
-------------7----------|
------------------------|
                                                        *
--------------------------------------------------------2--
-------------3-------------7--------------3-------------2--
-2-----------3-2-----------7--2-----------3-2-----------3--
---4-2-0-----3---4-2-0-----7----4-2-0-----3---4-2-0-----4--
---------4-------------4-2------------4-------------4-2-4--
-----------3-3-------------7------------3-3-------------2--

         *       *          *       *
-----------------3------------------3----------------------
---------5-------3----------5-------3----------------------
---4-----5-------4----4-----5-------4----------------------
-5---5---4-------3--5---5---4-------3----------------------
-------5-5-2p0---5--------5-5-2p0---5----------------------
---------------3-3----------------3-3----------------------

           *                       *         *         *
-------------3-3-3-2-2-2-0-0-0-0---3---------3-------0-----
-----------5-3-3-3-3-3-3-1-1-1---3-3-3h5p3-0-3---0-----5---
-2h4p2h4-5-5-----------------------4---------4-0---0---5---
-----------4-----------------------3---------3---------4---
-----------5-----------------------5---------5---------5---
-----------------------------------3---------3-------------

                               *
-------------------------------3---------------------------
-------------------------------3---------------------------
-7-7-7-5-5-5-4-2-0-0-2-4-2---0-4---------------------------
---------------------------4---3---------------------------
-------------------------------5---------------------------
-------------------------------3---------------------------

 * *
---3--|
-5-3--|
-5-4--|
-4-3--|x12
-5-5--|
---3--|


 * *
---3--|
-5-3--|
-5-4--|
-4-3--|x12
-5-5--|
---3--|
Este fichero es trabajo propio de su transcriptor y representa su interpretación personal de la canción. El material contenido en esta página es
para exclusivo uso privado, por lo que se prohibe su reproducción o retransmisión, así como su uso para fines comerciales.

© LaCuerda.net · Aviso Legal · Privacidad