Tablatura para Bajo de Fito & Fitipaldis: Un Buen Castigo
Conexión · Inscripción
Letras y Acordes
Pantalla Completa
Imprimir
Versión Texto
Añadir Favorito
Otras Versiones

Mostrar Diagramas
Desfile Automático
Formato del Texto


Un Buen Castigo(BAJ)

Fito & Fitipaldis

calidad:
f_fi0223
AUTOR: Fito & Fitipaldis  corregir
ALBUM: Lo Mas Lejos A Tu Lado
Enviado por Javi, basado en ALEJANDRO
Todo son corcheas. 4/4

Inttro
           B                                A
G |----||--------------------------|-----|--------------------------|-----|
D |----||o-------------------------|-0---|--------------------------|-0---|
A |----||o-2--2--*--2--------0-----|--/--|--0--0--*--0--------------|--/--|
E |----||--------------2--2-----2--|---0-|--------------0--0--2--2--|---0-|

              B
-----|-----|--------------------------|------||
-0---|-0---|--------------------------|-0---o||
--/--|--/--|--2--2--*--2--------0-----|--/--o||
---0-|---0-|--------------2--2-----2--|---0--||


Estrofas y solo
   B
|--------------------------|-----|
|o-------------------------|-0---|
|o-2--2--*--2--------0-----|--/--|
|--------------2--2-----2--|---0-|


  A                                              B
--------------------------|-----|-----|-----|--------------------------|------|
--------------------------|-0---|-0---|-0---|--------------------------|-0---o|
--0--0--*--0--------------|--/--|--/--|--/--|--2--2--*--2--------0-----|--/--o|
--------------0--0--2--2--|---0-|---0-|---0-|--------------2--2-----2--|---0--|


  E                          G           A
--------------------------|--------------------------|
--------------------------|--------------------------|
--------------------------|--------------------------|
--0--0--0--0--0--0--0--0--|--3--3--3--3--5--5--5--5--|


  B                                D
--------------------------|-----|--------------------------|-----|
--------------------------|-0---|--------------------------|-0---|
--2--2--*--2--------0-----|--/--|--5--5--5--5--5--5--5--5--|--/--|
--------------2--2-----2--|---0-|--------------------------|---0-|


  A                                E
--------------------------|-----|--------------------------|
--------------------------|-0---|--------------------------|
--0--0--*--0--------------|--/--|--------------------------|
--------------0--0--2--2--|---0-|--0--0--0--0--0--0--0--0--|


  A           F#             B
--------------------------|--------------------------|-----|
--------------------------|--------------------------|-0---|
--------------------------|--2--2--*--2--------0-----|--/--|
--5--5--5--5--2--2--2--2--|--------------2--2-----2--|---0-|

 ¡AH!
  G                          D           A
--------------------------|--------------------------|
--------------------------|--------------------------|
--------------------------|--5--5--5--5--------------|
--3--3--3--3--3--3--3--3--|--------------5--5--5--5--|


  B
--------------------------|-----|
--------------------------|-0---|
--2--2--*--2--------0-----|--/--|
--------------2--2-----2--|---0-|

Vuelta a empezar.
Para terminar continua:

 ¡AH!
  G                          D           A
--------------------------|--------------------------|
--------------------------|--------------------------|
--------------------------|--5--5--5--5--------------|
--3--3--3--3--3--3--3--3--|--------------5--5--5--5--|


  B
--------------------------|
--------------------------|
--2--2--*--2--------0-----|
--------------2--2-----2--|

                              Punteo final
  B                           G           A
--------------------------||--------------------------|
--------------------------||o-------------------------|
--2--*--*--*--*--*--5--2--||o-------------------------|
--------------------------||--3--3--3--3--5--5--5--5--|


 B
---------------------------|||
--------------------------o|||
--2--2--2--2--2--2--2--2--o|||
---------------------------|||
Este fichero es trabajo propio de su transcriptor y representa su interpretación personal de la canción. El material contenido en esta página es
para exclusivo uso privado, por lo que se prohibe su reproducción o retransmisión, así como su uso para fines comerciales.
© LaCuerda.net · Aviso Legal · Privacidad