Tablatura para Guitarra de Fito & Fitipaldis: Un Buen Castigo
Conexión · Inscripción
Letras y Acordes
Pantalla Completa
Imprimir
Versión Texto
Añadir Favorito
Otras Versiones

Mostrar Diagramas
Desfile Automático
Manipular Acordes
Formato del Texto


Un Buen Castigo(TAB)

Fito & Fitipaldis

calidad:
f_fi0222
AUTOR: Fito & Fitipaldis  corregir
ALBUM: Lo Mas Lejos A Tu Lado
Enviado por Fran
ACORDES:> Bm A E G D Em F#

Bueno, ahí va otro temazo del gran Fito. Que ustedes lo disfruten

INTRO:

e |----------------------------------------------------------------||
B |----------------------------------------------------------------||
G |--------------------------------7s9-7---------------------------||
D |-----9---9s12-------9---12s11v--------11-9-11-9-----9s7---7-9v--||
A |-7s9---9--------7s9---9-------------------------9v------9-------||
E |----------------------------------------------------------------||

e |----------------------------------------------------------------||
B |----------------------------(8v)--------------------------------||
G |-------------------------------7s9-7----------------------------||
D |-----9---9s12-------9---12s11v--------11-9-11-9-----9s7---7-9---||
A |-7s9---9--------7s9---9-------------------------9v------9-----7v||
E |----------------------------------------------------------------||

s=slide
v=vibrato
h=hammer on
p=pull off

A continuacion empieza la letra con un ritmillo más o menos como esta
explicado a continuación, pero tener cuidado porque en algunos acordes
no hace este ritmo sino un rasgueo normal.
Bm A e |---------------|---------------|---------------|-------------x--|| B |---3-x---3---x-|---3-x---3---x-|---2-x---2---x-|---2-x---2---x--|| G |---4-x-----4-x-|---4-x-----4-x-|---2-x-----2-x-|---2-x-----2-x--|| D |---4-x-------x-|---4-x-------x-|---2-x-------x-|---2-x-------x--|| A |-2---x-2-----x-|22---x-2-----x-|-0---x-0-----x-|00---x-0-----x--|| E |---------------|---------------|---------------|----------------||
Bm A (1) Lo he intentado muchas veces pero nunca me ha salido
A Bm puede que me falte voluntad o que me sobre vicio
Bm A y mirando en mi cabeza no encontre ningun motivo
A Bm la verdad es que me interesa solo porque esta prohibido
E G A Bm (2) el mejor de los pecados el de haberte conocido
D A tu no eres sin mi yo solo soy contigo
Em A F# Bm y cuidar de las estrellas puede ser un buen castigo
G Bm A Bm aah ahh aah ahh (1) A traves de mis orejas discutiendo a pleno grito El demonio a mi derecha y a la izquierda un angelito demasiado acelerado nunca encuentro mi destino yo no se si mis zapatos duraran todo el camino (2) nunca pido nada a cambio eso es algo que he aprendido yo siempre te dao los versos que tu nunca me has pedido y cuidar de las estrellas puede ser un buen castigo aah ahh aah ahh (punteo)
Bm A Bm A Bm (2)Que te metes Don Quijote pa flipar con los molinos los ojos como el coyote cuando ve al correcaminos y cuidar de las estrellas puede ser un buen castigo aah ahh aah ahh aah ahh aah ahh e |-----------------------------------------------------|| B |--7h8p7----------------------------------------------|| G |--------9--7--9s11-------------------7-6v------------|| D |--------------------9--11s12v------9--------9-7-9v---|| A |--------------------------------10-------------------|| E |-----------------------------------------------------|| e |-----------------------------------------------|| B |--7-7-8-7-10-7-8-----------10-8-7--------------|| G |-----------------9v-7v-9v---------9v--7--------|| D |-----------------------------------------9-9v--|| A |-----------------------------------------------|| E |-----------------------------------------------|| Esto se repite varias veces y ya está. Para cualquier cosilla:franpariente@hotmail.com Un besito para ellas, un abrazo para ellos. Salu2
Este fichero es trabajo propio de su transcriptor y representa su interpretación personal de la canción. El material contenido en esta página es
para exclusivo uso privado, por lo que se prohibe su reproducción o retransmisión, así como su uso para fines comerciales.
© LaCuerda.net · Aviso Legal · Privacidad