Tablatura para Guitarra de Fito & Fitipaldis: Umore Ona
Conexión · Inscripción
Letras y Acordes
Pantalla Completa
Imprimir
Versión Texto
Añadir Favorito
Otras Versiones

Mostrar Diagramas
Desfile Automático
Manipular Acordes
Formato del Texto


Umore Ona(TAB)

Fito & Fitipaldis

calidad:
f_fi0641
AUTOR: Fito Cabrales
ALBUM: Antes de que Cuente diez (2009)
Enviado por amused312
[/] Slide Up  () Slide Down  [h] Hammer On
[p] Pull Off  [b] Bend [r] Release [v] Vibrato

No está perfecta, bienvenido el que quiera aportar alguna correción


E|------------------------------------------------------------
B|----------------------------------------------15----13------
G|-------7---5------------7-5-5-----------12-15----15----15---
D|-0-5-8---8---8----0-5-8-------8-5----12---------------------
A|------------------------------------------------------------
E|------------------------------------------------------------

E|-----------------------------------------------------------
B|-----------15-13-13---------------------------6------------
G|-----12-15----------15-12-------/7-6-5----/7---7-6-5------
D|--12--------------------------------------------------8-5v-
A|-----------------------------------------------------------
E|-----------------------------------------------------------

E|-------------------------------------------------------------------
B|---------------------------------------8-6----------------6--------
G|-----------------------5-5---5-8-8-5-8-----5b6-----5-7--7---7-6-5--
D|-0-4-5-5-5-4-5-7-7-5-7-----7-------------------5-7-----------------
A|-------------------------------------------------------------------
E|-------------------------------------------------------------------

E|------------------------------------------------------------------
B|------------------------------------------------------------------
G|--5h7-5h7-7p5---5-------------------------------------------------
D|--------------8---8-8-7-8-0h5-5-5-5-5-7-7-----------------------5-
A|------------------------------------------5-5-5-5-5-5-5-5-5-5-5---
E|------------------------------------------------------------------

E|-------------------------------------
B|-------------------------------------
G|-------7----7-5-----5----7-5-----8---
D|-0-5-8----------8-5----------8-7-----
A|-------------------------------------
E|-------------------------------------

E|------------------------------------------------
B|---------6-6-8-6-6------------------------------
G|-7-5-7-7-----------7----5-7-7---7-7-7-5-----5-7-
D|----------------------------------------5-8-----
A|------------------------------------------------
E|------------------------------------------------

E|--------------------------------------
B|--------------------------------------
G|------------5-------5-5-7-5-5---------
D|-0-0-4-0-4----8-7-8------------8-7-8--
A|--------------------------------------
E|--------------------------------------

E|------------------------------------------12--
B|-------8-11-10-8----------7------------11-13--
G|-0-5-8--------------5-7-8------8-10-11--------
D|-0-5-8-5-8--7--5----5-7-8------8-10-11--------
A|----------------------------------------------
E|----------------------------------------------

E|-3----------------------------------
B|-4--6p5-----------------------------
G|-5------7p5-7-----------------------
D|-5------------8-7-8-5h7p5-0-4-4-5---
A|-3----------------------------------
E|------------------------------------

E|--------------------------------6-3-6-3-----------
B|--------------------------------6-3-6-3----4-7-10-
G|-11-10-9-8-7-6-5-6-7-8-9-10-11--7-3-7-3----5-8-11-
D|--------------------------------8-5-8-5-----------
A|--------------------------------8-5-8-5-----------
E|--------------------------------6-3-6-3-----------

E|--------------------------------------
B|--------------------------------------
G|---------7---5------------7-5-5-------
D|---0-5-8---8---8----0-5-8-------8-5---
A|--------------------------------------
E|--------------------------------------

E|------------------------------------------------------
B|---------------------------------------4--------------
G|-------------------------------------4---6---6-4-5-6-
D|-6-4-5-6----6-6-4-5-6----06-4-5-6-6------------------
A|------------------------------------------------------
E|------------------------------------------------------

E|-------------------------------
B|-------------------------------
G|-6h8p6-5h7p5-4h6p4-3-----------
D|----------------------5--------
A|------------------------7------
E|-------------------------------

E|-------------------------------------------------------------
B|-------------------------------------------------------------
G|-----------------------5-8-10----13--/10--13--/10----7--1--
D|-----------5-6---6-8-6---------------------------------------
A|-----6-7-8-----8---------------------------------------------
E|---8---------------------------------------------------------

E|-----------------------10-8p6-----------------------------
B|--------------8----8p6--------9-8p6---------8-6---7-5---7-
G|-----------10-----------------------8-----------8-----7---
D|-----10-12------------------------------------------------
A|--11------------------------------------------------------
E|----------------------------------------------------------

E|----------------------------------
B|----------------------------------
G|-------7---5------------7-5-5-----
D|-0-5-8---8---8----0-5-8-------8-5-
A|----------------------------------
E|----------------------------------

E|------------------------------------------------------------------
B|------------------------------------------------------------------
G|---------7---------------------8----------5----------5------------
D|---0-5-8------0-5-8-8----0-5-8------0-5-8------0-5-8------0-5-8-7-
A|------------------------------------------------------------------
E|------------------------------------------------------------------

E|---------------------------------
B|---------------------------------
G|-------7-5-5---5-7-5---5-------7-
D|-0-5-8-------8-------8---8-5-8---
A|---------------------------------
E|---------------------------------

E|----------------------------------------------------------
B|----------------------------------------------------------
G|--------------------8----------5----------5---------------
D|---0-5-8-8----0-5-8------0-5-8------0-5-8------0-5-8-7----
A|----------------------------------------------------------
E|----------------------------------------------------------

Esto se toca 2 veces

E|----------------------------------
B|----------------------------------
G|-------7-5-5---5-7-5---5-------7--
D|-0-5-8-------8-------8---0-5-8----
A|----------------------------------
E|----------------------------------

E|------------------------------------------------------
B|------------------------------------------------------
G|--------7----------8----------8----------5----------5-
D|--0-5-8------0-5-8------0-5-8------0-5-8------0-5-8---
A|------------------------------------------------------
E|------------------------------------------------------



E|-------------------------------------------
B|-------------------------------------------
G|-12-11-10-9-8-7-6-5----5-7-5---5-----5-----
D|-----------------------------8---8-7---8---
A|-------------------------------------------
E|-------------------------------------------

E|--------------------------------------------------------------------------
B|-6-5-4----6-5-4-2-4-2--------------------------------11-11-10-8-8-10-11---
G|----------------------3--0-2-3-3-3-0-2-3-5-5-3-5-8-8----------------------
D|--------------------------------------------------------------------------
A|--------------------------------------------------------------------------
E|--------------------------------------------------------------------------

E|-------------------------------------10--10----3-
B|---6-6-5-4-4----6-6-6-5-4-3-------------11----3-
G|------------------------------3-3--------12----3-
D|-------------------------------------------------
A|-------------------------------------------------
E|-------------------------------------------------


E|--13-12-11-------------------------------------
B|--14-13-12-11----------------------------------
G|-----------12----12-11-10-9-8-7-6-5-4-3-2-1-0--
D|-----------------------------------------------
A|-----------------------------------------------
E|-----------------------------------------------
Este fichero es trabajo propio de su transcriptor y representa su interpretación personal de la canción. El material contenido en esta página es
para exclusivo uso privado, por lo que se prohibe su reproducción o retransmisión, así como su uso para fines comerciales.
© LaCuerda.net · Aviso Legal · Privacidad