Tablatura para Bajo de Fito & Fitipaldis: Trocitos de cristal
Conexión · Inscripción
Letras y Acordes
Pantalla Completa
Imprimir
Versión Texto
Añadir Favorito
Otras Versiones

Mostrar Diagramas
Desfile Automático
Formato del Texto


Trocitos de cristal(BAJ)

Fito & Fitipaldis

calidad:
f_fi0063
AUTOR: Fito & Fitipaldis  corregir
ALBUM: desconocido
Enviado por Dany
     Dm7      Gm7      Dm7      Dm7
G|--------|--------|--------|--------|
D|--------|----3-35|--------|--------|
A|55--3-35|---5-5--|55--3-3-|55--3-35|
E|---5-5--|33------|---5-5-5|---5-5--|

    Gm7     Gm7       Dm7      Dm7
G|--------|--------|--------|--------|
D|----3-3-|----3-35|--------|--------|
A|---5-5-5|---5-5--|55--5-3-|55--3-35|
E|33------|33------|---3-3-5|---5-5--|

     A7         Gm7    Dm7    A7(1)     A7(2)
G|--------|--------|--------|--------||--------|
D|8---10-8|--------|--------|--------||--------|
A|-8-10---|--------|55--3-35|--------||-3------|
E|--------|3-5-3-1-|---5-5--|55555555||5-5-31--|
Esto se toca durante la parte del blues, la pimera rueda termina
con A7(1) y la segunda con A7(2).

     C        Bb      Dm7       Dm7
G|--------|--------|--------|--------|
D|-------5|--------|--------|------3-|
A|------7-|------58|555--234|555--5-5|
E|888--8--|666--6--|--------|--------|
Esto se toca durante la parte de la estrofa (4 veces).

     F       F         A7       A7
G|--------|--------|--------|----575-|
D|--------|--------|--------|--57----|
A|--------|--------|--------|-7------|
E|1-1-1-1-|1-1-1-1-|5-5-5-5-|5-------|
Esto es el enganche con el estribillo.

    Dm7      Bb        F       c/Db
G|--------|--------|--------|--------|
D|--------|--------|23-33-3-|--------|
A|--------|1-1-1-1-|--------|3-33-4-4|
E|5-5-5-5-|--------|--------|--------|
Parte del estribillo (2 veces).

     A7
G|--------|
D|--------|
A|0101010-|
E|--------|
Con este compas vuelve al ritmo de blues.

    A7        Dm7      F        A7
G|--------|--------|--------|--------|
D|--------|--------|--------|--------|
A|01010101|45454545|78787878|0101010-|
E|--------|--------|--------|--------|
Esto es para volver al ritmo de blues la segunda vez antes
del final.

En la ultima rueda de Blues en el compas 10 y 11 solo hace
tonica para acabar.

Eso es todo, escucharla un par de veces y va rodado. Un saludo!
Este fichero es trabajo propio de su transcriptor y representa su interpretación personal de la canción. El material contenido en esta página es
para exclusivo uso privado, por lo que se prohibe su reproducción o retransmisión, así como su uso para fines comerciales.
© LaCuerda.net · Aviso Legal · Privacidad