Tablatura para Guitarra de Fernando Delgadillo: Bienvenida
Conexión · Inscripción
Letras y Acordes
Pantalla Completa
Imprimir
Versión Texto
Añadir Favorito
Otras Versiones

Mostrar Diagramas
Desfile Automático
Manipular Acordes
Formato del Texto


Bienvenida(TAB)

Fernando Delgadillo

calidad:
fern0126
AUTOR: Fernando Delgadillo
ALBUM: desconocido
Enviado por jesus
|Me encanta esta rola !!!                 |
|Con dedicatoria para la añarita jr.!!!   |
|Bienvenida!!! :)       boxxxoman!!!      |

*Lo primero con esta rola es que deben escucharla
mientras leen la tablatura por que los arpejeos y los tiempos
son muy variados.

*Se utiliza capo en el 2o. traste

*Todas las posiciones son correctas.

*Los arpejeos los pueden hacer como gusten,
estas canciones dan mucha libertad.

*Se pueden guiar con el siguiente video:

http://www.youtube.com/watch?v=exByDBaPElA
--------------------------------------------------------------

Acordes:

   |eBGDAE|           |eBGDAE|           |eBGDAE|

A  |022200|         A5|002200|        A/G|022203|

E  |001220|      Esus4|002220|        Bm7|23252x|

G  |330023|    Asus2/G|002xx3|         Bm|23442x|

E7 |031020|          D|2320xx|      Dsus4|0320xx|

Em7|030220|   Asus4/F#|032002|  E7sus4/Ab|054004|

A* |05670x|

h= hamer/pulloff

v= vibrato

s= slide

()= armonico

Fernando Delgadillo - Bienvenida

Intro

e|---0------------------0--------|-------|
B|-0-0-----0---0--0-----0------0-|---0---|
G|-2-2-----2---2--2-----2------2-|---2---|
D|-2-----2---2----2->2<------2---|-2---2-|
A|-0---0-------------------------|-------|
E|----------------3--------3-----|-------|


e|---0----------------------------|
B|-0-0-----0---0------3----2-3----|
G|-2-2-----2---2------0----0-0----|
D|-2-----2---2------0---0------0--|
A|-0---0--------------------------|
E|----------------3---------------|


e|----------------------------0--------|-------|
B|-3s2--0h2--0h2h0---0--0-----0------0-|---0---|
G|-2----2----2---2---2--2-----2------2-|---2---|
D|-2----2----2-----2----2->2<------2---|-2---2-|
A|-0----0----0-------------------------|-------|
E|----------------------3--------3-----|-------|


e|---0----------------3---2h0---0-|
B|-0-0-----0---0------0---0-----0-|
G|-2-2-----2---2----0---0-----0---|
D|-2-----2---2--------------------|
A|-0---0--------------------------|
E|----------------3---------------|


e|----------------------------0--------|-------|
B|-3s2--0h2--0h2h0---0--0-----0------0-|---0---|
G|-2----2----2---2---2--2-----2------2-|---2---|
D|-2----2----2-----2----2->2<------2---|-2---2-|
A|-0----0----0-------------------------|-------|
E|----------------------3--------3-----|-------|


e|---0-----------------------------------|
B|-0-0-----0---0--0-----0------0-----0---|
G|-2-2-----2---2--2-----2------2-----2---|
D|-2-----2---2----2--2------2-----2------|
A|-0---0---------------------------------|
E|----------------3-------3--------------|


e|------------2-----0------------------0------|
B|---------2--2--0--0-----0---0--0-----0------|
G|-------2----2--2--2-----2---2--1-----1------|
D|-----6---------2------2---2----2--2----2----|
A|---4----------------------------------------|
E|-2-------------0----0----------0------------|

 Es de verdad         ya estás aquí     ha sido un largo
e|-0-2-4-5---------0--5-4-2-0-----------------------|
B|---------------0----------------------------------|
G|-------------0--------------------2---------------|
D|-----------6--------------------2-----------------|
A|------------------------------0------4h5-4-0-2-4--|
E|--------------------------------------------------|

Tiempo d espera y de ansiedad  de saber         que ibas
e|-------------------------------------5--9-7-|
B|------3--------3-----0h2-0------------------|
G|------2--------1-----2---2------2s4---------|
D|----4---4--------0---------2----------------|
A|-2-----------2-------0--------0-------------|
E|-----------0--------------------------------|

 A venir   me ha puesto en un estado entre   llorar
e|------4-----------5-5-4-4-3---2h0---------------|
B|-5h7--5--------2--------------3-----3-----5-----|
G|-4-------------2--------------2-----2-----4-----|
D|------------------------------0-------0-----0---|
A|-4----------4-----------------------------------|
E|---------2--------------------------2-----4-----|

  Y reír  no hagas caso, como te va?
e|-------------------------------2----------|
B|-3s2------0h2h0--------------2--------5---|
G|-2------2-------2----------2----------4---|
D|-2----2-----------2------6----------6---6-|
A|-0---------------------4----------4-------|
E|---------------------2--------------------|

Ven déjame abrazarte y ya después me dirás siempre hay tiempo
e|---------------------------------------------------|
B|-2h0--------------3---------5---------2---------2--|
G|-2------2-------2---------4---------2---------2----|
D|------2-------0---------0---------2---------2------|
A|-0------------------------------0------------------|
E|------------2---------4-------------------3--------|

Mentira, la dicha se va en tantas formas, si te fuiste
e|---------0-------2h0-----------------------------4--|
B|-------3---3-----3------2---1-----------5---5h7--5--|
G|-----2-------2---2---2--2---2-----------4---4-------|
D|---0-------------0------2---2-2------6----6---------|
A|----------------------------------4-----------------|
E|-2----------------------0---------------------------|

       Tu   y el verte de nuevo me inunda
e|-----------5-5-4-4-2—-2h0----------------|
B|------2---------------3----2--3--------5-|
G|------2---------------2-------2---2----4-|
D|----------------------0---------0--------|
A|---4-------------------------------------|
E|-2----------------------------2--------4-|

   De gratitud,     de ventura           de felicidad
e|----------------0----------0h2-0-----|-----------0--------|
B|-3s2---0-2----0---0------3-------2---|-------0h2---2h0----|
G|-2-----2-2--2----------2-----------3-|-----2-------2----2-|
D|-2-----2-2-----------0---------------|---2----------------|
A|-0-----------------------------------|-0------------------|
E|-------------------------------------|--------------------|

La vida un día toca la puerta nos manda a llamar como hojas que el
e|-2---------------------------------4-----------5-5-4-4-3--|
B|---3----2----1-----------5-----5h7---------2--------------|
G|-----2--2----2-----------4-----4-----------2--------------|
D|-0------2----2--2------6-----6----------------------------|
A|---------------------4-----4------------4-----------------|
E|--------0-----------------------------2-------------------|

Viento separa y después d algún tiempo las junta las vuelve a encontrar
e|-2h0------------------------------4---------------2---|
B|-----3---2-----1-----------5-5----5------------2------|
G|---------2-----2-----------4-4h6--4----------2--------|
D|-0-------2--2--2--2------6----------6------6----------|
A|----------------------4------------------4------------|
E|---------0-----------------------------2--------------|

No caven rencores la cosa es así   lo único que quiero
e|-----------------------5------9-7-5--------0---|
B|-3----3----2s3------3--5---5--------7-5--------|
G|-0----2-----------2------0--------------6v-----|
D|---2--2--2------0------------------------------|
A|------0----------------4-----------------------|
E|-0---------------------------------------------|

Mirar es que estas otra vez junto a mi
e|----------0----------------------|
B|-------0----0-----------0--------|
G|-----2--------2-------2---1------|
D|---2----------------2-------2----|
A|-0-------------------------------|
E|------------------0--------------|

puente

e|---0------------------0--------|-------|
B|-0-0-----0---0--0-----0------0-|---0---|
G|-2-2-----2---2--2-----2------2-|---2---|
D|-2-----2---2----2->2<------2---|-2---2-|
A|-0---0-------------------------|-------|
E|----------------3--------3-----|-------|


e|---0----------------------------|
B|-0-0-----0---0------3----2h3----|
G|-2-2-----2---2------0----0-0----|
D|-2-----2---2------0---0------0--|
A|-0---0--------------------------|
E|----------------3---------------|


e|-0h2-0----------------0-----0----0-----5-9-7-5------0-5--|
B|-0---0-3-2-0---0------0-----0----0--------------2s3------|
G|-2-----2-2-2---2----2-----2------------------------------|
D|---------------------------------------------------------|
A|-0-----------0-------------------------0-----------------|
E|------------------3-----3------3-------------------------|

             Uno no sabe que decir  la ocasión
e|----------0----0------------2------------4---|
B|---0------0----0---------2------------5----5-|
G|---2----2--------------2------------6--------|
D|---------------------6------------6----------|
A|-------------------4------------4------------|
E|-3----3-----3----2---------------------------|

Amerita una celebración de emociones
e|-2h0-----------------------------------------|
B|-3---3---3----5-----3h2-----0h2h0------------|
G|-2-------2----4-----2-----2-------2---2h0----|
D|-0---------0----0-------2-----------2-----2--|
A|--------------------0------------------------|
E|---------2----4------------------------------|

De hablar y escuchar que te puedo contar
e|------------0-------------4-|
B|---------2-------------5----|
G|-------2-------------6------|
D|-----6-------------6--------|
A|---4-------------4----------|
E|-2--------------------------|

Si no se por dónde empezar
e|---------3--2-----2--|-----0-----0----0------0---|
B|-------3--------3----|-----0-----0----0------0---|
G|-----0--------2------|---2-----2------2----1-----|
D|------------0--------|---------------------------|
A|---------------------|---------------------------|
E|---3-----------------|-0-----0------0----0-------|

Te puedo abrazar, ya estás aquí es tu
e|-0-0-2-4-5---------5--0--0---------0------0----|
B|---------------0-------------------5------5----|
G|-------------0---------------------6------6----|
D|-----------6----------------------------7------|
A|--------------------------------0-----0--------|
E|-0-----------------0--2--4---------------------|

  Bienvenida y yo soy tan feliz
e|----------------------------0-2------0-------|
B|-------3-----------5------3--------3---------|
G|-----2-----------4------2--------2-----------|
D|---0-----------0------0----------------------|
A|---------------------------------------------|
E|-2---------4---------------------------------|


e|-5-9-7-5---------0-------------0--------|
B|---------5-7-----0-------------0h2------|
G|-------------6---2-------------2--------|
D|-----------------2-------------2--------|
A|-----------------0--(7)--------0--------|
E|------------------------(5)-------------|
Este fichero es trabajo propio de su transcriptor y representa su interpretación personal de la canción. El material contenido en esta página es
para exclusivo uso privado, por lo que se prohibe su reproducción o retransmisión, así como su uso para fines comerciales.

© LaCuerda.net · Aviso Legal · Privacidad