Acordes de Guitarra » F »Fausto » Agua Caliente (Tab)

Agua Caliente
Fausto

Letras, Acordes y Tabs para Guitarra, Bajo y Ukulele

  •     RE                 FA#m
    No Puedo negar aunque quiera,
                   SIm
    que un día fui tuyo
       SOL               LA
    instantes felices no dejo
                      RE
    que el tiempo destruya
        FA#m
    No puedo alejarme de ti
                    SIm
    ni tampoco lo intento
      MI
    haré de este día en mi vida
                LA
    un eterno momento
    
      RE                FA#m
    Ahora eres parte de mi
                     SIm
    
  • E:--------10-9------9------10-9-----|-------8-7-----7-----8-7----|--
    B:-----10------10-----10--------10--|-----8-----8-----8-------8--|--
    G:---9------------9------9---------9|---7---------7-----7-------7|--
    D:----------------------------------|----------------------------|--
    A:-0--------------------------------|-0--------------------------|--
    e:----------------------------------|
    
    
    E:--------6-5------5------6--5------|-------5-4-----4-----5-4----|--
    B:-----6------6------6---------6----|-----5-----5-----5-------5--|--
    G:---5------------5------5---------5|---4---------4-----4-------4|--
    D:----------------------------------|----------------------------|--
    A:-0--------------------------------|-0--------------------------|--
    e:----------------------------------|----------------------------|--
    
    E:----------------------------------|
    B:---2-3-2-0------------------------|
    G:-----------2-1-2------------------|
    D:----------------------------------|
    A:-0--------------------------------|
    
  • +
    ¡Colabora con nosotros!
    Envíanos tu versión de esta canción

Letra de Agua Caliente
No Puedo negar aunque quiera,
que un día fui tuyo
instantes felices no dejo
que el tiempo destruya
No puedo alejarme de ti
ni tampoco lo intento
haré de este día en mi vida
un eterno momento
Ahora eres parte de mi
y de mi corta historia,
tu tierna manera de amar
ya la sé de memoria,
estás bien grabada(o) en mi mente
y en mi cuerpo entero
y sabes que aún no te digo
que yo puedo y quiero.
Quiero al beber tu veneno
embriagarme de suerteeeeeeeeee
quiero al momento de amarte
acercarme a la muerte
Quiero entre sábanas blancas
hacerte volaaaaaaaaar yyyyyyyyy suavemente
quiero correr por tu cuerpo
como agua caliente.
II
Ahora ya sé tus deseos
tus miedos, tus sueños
Ahora conozco también
tus defectos pequeeeños
estás bien grabada(o) en mi mente
y en mi cuerpo entero
y sabes que aún no te digo
que yo a ti te quiero
Quiero al beber tu veneno
embriagarme de suerteeeeeeeeee
quiero al momento de amarte
acercarme a la muerte
Quiero entre sábanas blancas
hacerte volaaaaaaaaar yyyyyyyyy suavemente
quiero correr por tu cuerpo
como agua caliente.
Quiero al beber tu veneno
embriagarme de suerteeeeeeeeee
quiero al momento de amarte
acercarme a la muerte
Quiero entre sábanas blancas
hacerte volaaaaaaaaar yyyyyyyyy suavemente
quiero correr por tu cuerpo
como agua caliente.
yyyyyyy suavemente
quiero correr por tu cuerpooooooooo
coooooomo agua caliente.

Video de Agua Caliente
[]




[Agua Caliente chords][Agua Caliente cifra]
© LaCuerda.net · aviso legal · privacidad · es · en · pt · contacto