Acordes de Guitarra » F »Fanfarrón » Mar de penas (Tab)

Mar de penas
Fanfarrón

Letras, Notas, Punteos, Tablaturas y Acordes de Guitarra (Tabs & Chords)

  • Letra y Acordes
    e-------------|----------------|--------------|-------------|
    B--5--5-3-5-3-|-5--5-6-8-10-13-|-10--10-8-7-8-|-5--5-3-1-3--|
    G-------------|----------------|--------------|-------------|
    D-------------|----------------|--------------|-------------|
    A--3--3-2-3-2-|-3--3-5-7--8-12-|--8---8-7-6-7-|-3--3-2-0-2--|
    E-------------|----------------|--------------|-------------|
    
    e-------4-|---5--5--5-5-||
    B--1---3--|--5--5--5-5--||
    G-----4---|-------------||
    D---------|-7--7--7--7--||
    A--0------|-------------||
    E---------|------- -----||
    
    
    FA                                               DO
      Un golpe directo en el alma te dejó sin reaccionar
    FA                                         DO
      El día en que descubriste tu nueva identidad
    REm                                          LAm
    
  • +
    ¡Colabora con nosotros!
    Envíanos tu versión de esta canción

Letra de Mar de penas
B--5--5-3-5-3-|-5--5-6-8-10-13-|-10--10-8-7-8-|-5--5-3-1-3--|
Un golpe directo en el alma te dejó sin reaccionar
El día en que descubriste tu nueva identidad
Veías la luz encendida en un cuarto vacío
Acorralado en un rincón escondido
Que no se ahogue tu esperanza en un mar de penas
Que no se ahogue tu esperanza en un mar de penas
Juego funky sobre Lam y termina con punteo chacareresco
(no lo saqué)
Tu cara de tristeza es una herida en mi corazón
Tenías la mirada fija en ninguna dirección
Perdida en las horas eternas de un sueño interrumpido
Desesperado en la noche acelerando tus latidos
Que no se ahogue…
Bueno, mi primer aporte... voy a tratar de poner más Fanfarrón
y otras bandas que faltan!!



© LaCuerda.net · Aviso Legal · Privacidad
DINAMICO