Acordes de Guitarra » E »Estelares » Estrella (Tab)

Estrella
Estelares

Letras, Acordes y Tabs para Guitarra, Bajo y Ukulele

  • e-----------------------------
    B----0------0------0----0-----
    G---0-0----0-0----0-0--0-0----
    D-(2)---(1)----(0)------------
    A--------------------(3)------
    E-----------------------------
    
    
    Arpegio 2):
    
    
    e---------------------------
    B---------------------------
    G-----3~----2~----1~----0---
    D----3-----3-----3-----3----
    A---1-----1-----1-----1-----
    E---------------------------
    
    
    Arpegio 1) Nunca creíste sentirte así
    
  • -----------12-13--12-13-12--------------|
    ---------10--------------------11-11-11-|
    -10----10-------------------10----------|
    ----12----------------------------------|
    ----------------------------------------|
    ----------------------------------------|
    
    
    -----------14-15--14-15-14--------------|
    ---------12-----------------12--12/15---|
    -12----12-------------------------------|
    ----14----------------------------------|
    ----------------------------------------|
    ----------------------------------------|
    
    ----------------------------------------|
    --13/(15)13/(15)13--11--11------------|
    ------------------------12--------------|
    ----------------------------------------|
    ----------------------------------------|
    ----------------------------------------|
    
    ----------------------------------------|
    --13/(15)(15)(15)(14)(14)---------------|
    ----------------------------------------|
    ----------------------------------------|
    ----------------------------------------|
    --------------------------------
  • +
    ¡Colabora con nosotros!
    Envíanos tu versión de esta canción

Letra de Estrella
Arpegio 2):
Arpegio 1) Nunca creíste sentirte así
Arpegio 2) después de tantos años de fiestas y de ruta
nunca pensaste verte tan vacía
tan seca, tan sola, después de tanta risa
vos que fuiste la reina del brillo y el mar
la estrella del sur
burlándote ante todos y a escondidas
sin amor, sin piedad, de amigos, de amigas
hasta de mi alma de orgullo hoy princesa del ocaso
flor del glamour y yo rey del hartazgo
ya no hay marquesinas, ni reyes en tu placard
la reina del disfraz
Los trajes de gala están en la sala
dormidos, cerrados, guardados, congelados
los viajes a las islas murieron para siempre
tan hermosa como siempre
pero el rouge ya no ríe y se burla
la reina del disfraz
la estrella del sur
qué se siente andar cayendo
cada calle cada día
de la mano de las sombras
y de nuestra vieja herida
la soledad
la soledad
la soledad
la soledad
Muy buen tema de los señores Manu y Torio
Cualquier duda tvidiota@hotmail.com




[Estrella chords][Estrella cifra]
© LaCuerda.net · aviso legal · privacidad · es · en · pt · contacto
DINAMICO