Letra y Acordes de Los Espíritus: Noches de verano
Conexión · Inscripción
Letras y Acordes
Pantalla Completa
Imprimir
Versión Texto
Añadir Favorito
Otras Versiones

Mostrar Diagramas
Desfile Automático
Manipular Acordes
Formato del Texto


Noches de verano

Los Espíritus

calidad:
eprt0062
AUTOR: Los Espíritus
ALBUM: Los Espiritus (2013)
Enviado por agustin, basado en Gabriel
Intro:
E||---------------------------------------------------------------|
B||---------------------------------------------------------------|
G||---------------------------------------------------------------|
D||--------4---4-6--------4---4-6--------4---4-6---------4---4----|
A||----4/6---6--------4/6---6--------4/6---6---------4/6---6------|
E||--7--------------6--------------4---------------4--------------|

E||---------------------------------------------------------------|
B||---------------------------------------------------------------|
G||---------------------------------------------------------------|
D||--------4---4----------4---4-6--------4---4-6---------4---4----|
A||----4/6---6--------4/6---6--------4/6---6---------4/6---6------|
E||--7--------------6--------------4---------------4--------------|

E||---------------------------------------------------------------|
B||---------------------------------------------------------------|
G||---------------------------------------------------------------|
D||--------4---4----------4---4-6--------4---4-6---------4---4----|
A||----4/6---6--------4/6---6--------4/6---6---------4/6---6------|
E||--7--------------6--------------4---------------4--------------|


B D#m G#m Como en las noches de verano
B D#m G#m Que salía a matar
B D#m G#m Como esas noches de verano
B D#m G#m Llenas de felicidad
B D#m G#m Yo me sentía tan solo
B D#m G#m Con un muerto en el placar
B D#m Tenía amor en el hall
G#m y todo estaba bien
B D#m G#m Siempre había una flor para descuartizar
B D#m G#m Como en las noches de verano
B D#m G#m Que salía a matar
B D#m G#m Como esas noches de verano
B D#m G#m Llenas de felicidad
Solo: B-D#m-G#m
B D#m G#m Para ser bueno hay que hacer el mal
B D#m G#m Pero a escondidas
B D#m G#m Para ser bueno hay que hacer el mal
B D#m G#m Pero a escondidas
B D#m G#m Todos tendremos que cargar la misma cruz
B D#m G#m Y un suspiro antes de viajar
B D#m G#m Como en las noches de verano
B D#m G#m Que salía a matar
B D#m G#m Como esas noches de verano
B D#m G#m Llenas de felicidad
Solo: B-D#m-G#m El final es todo lo mismo, el tema es todo lo mismo. B D#m y Gm.
Este fichero es trabajo propio de su transcriptor y representa su interpretación personal de la canción. El material contenido en esta página es
para exclusivo uso privado, por lo que se prohibe su reproducción o retransmisión, así como su uso para fines comerciales.


© LaCuerda.net · Aviso Legal · Privacidad