Acordes de Guitarra » E »Los Espíritus » Jugo (Tab)
  • Letra y Acordes
    Gm x2
    Gm A# F Gm
    
    
    [A]
    Gm
    Llaman...
                           A#
    Llaman las voces a mi alma
                     F
    Ofrecen a beber jugo
                         Gm
    Hay tanto jugo por aquí
    
    [A]
    Cantan
    Y hablan de días entre olas
    Entre las olas de ese jugo
    Hay dulce jugo para mí
    
    
  • Tablatura
    Gm x2
    
    e|---------6-------------6---------|
    b|-8-8-6-8--6-8-6-8-6-8---8-6-(x2)-|
    g|---------------------------------|
    d|---------------------------------|
    a|---------------------------------|
    E|---------------------------------|
    
    Gm A# F Gm
    
    e|----------------------------xx-3-xx-3------------------------------|
    B|----------------------------xx-3-xx-3------------------------------|
    G|--5b7--3-5-3--5b7p3-5-5p3-2-xx-3-xx-3--------------3---------------|
    D|--------------------------------------5--------3h5---5~------------|
    A|-------------------------------------------3h5---------------------|
    E|-------------------------------------------------------------------| Con wah
    
    Gm
    Llaman
    
  • +
    ¡Colabora con nosotros!
    Envíanos tu versión de esta canción

Letra de Jugo
Llaman...
Llaman las voces a mi alma
Ofrecen a beber jugo
Hay tanto jugo por aquí
Cantan
Y hablan de días entre olas
Entre las olas de ese jugo
Hay dulce jugo para mí
No es mi tarea elegir
Si la marea lleva o trae
Iré por donde alumbre el sol
Oh oh oooooo... oooo
Llaman
Llaman las voces a tu alma
Ofrecen a beber jugo
Hay tanto jugo por aquí
Así que calma
Cuando todo se vuelva oscuro
Buscá los mares de ese jugo
Hay dulce jugo para ti
No es tu tarea elegir
Si la marea lleva o trae
Irás por donde alumbra el sol
Oh oh oooooo... oooo
No es tu tarea elegir
Si la marea lleva o trae
Irás por donde alumbra el sol
Oh oh oooooo... oooo
Termina en
Creo que así esta perfecto.
Aguante Piquiniki FC, y los espíritus ^^



© LaCuerda.net · aviso legal · privacidad · contacto