Acordes de Guitarra » E »Espinoza Paz » Perdóname (Tab)

Perdóname
Espinoza Paz

Letras, Acordes y Tabs para Guitarra, Bajo y Ukulele

  • Intro: Am  Dm  G  C  E
      Am                                Dm
    Quisiera remediarlo todo con algun te amo pero no sera
      G                                  C
    sera que mi culpabilidad y mis malos tratos
                                     Am
    tambien se cansaron de hacerme creer que tenia razon
                 Dm                             G
    cuando te parti en dos el corazon como remediar esta situacion
                   C                                      E
    si ya perdi la cuenta de todas las veces que te pedi perdon.
                     Am                        G
    Y ahora quiero cambiar pero el sol se ha metido
                              C
    solo quedan segundos unos cuantos segundos
              Am                          G
    para convencerte que cualquiera se equivoca y solamente
       C                                          E
    te pido no me cierres la boca y me des un segundo mas
                            Am                 E
    
  •    Am                        Dm
    
    e|------------------------------------------|
    B|-5-5--5-5--3-3--1--1-1-3-5-5/8-6--6-6-5-6-|
    G|------------------------------------------|
    D|------------------------------------------|
    A|------------------------------------------|
    E|------------------------------------------|
    
       G                         C            E
    e|------------------------------------------|
    B|-3-3--3-3--1-1--0--0-0-1-3-3/6-5--5-5-4-5-|
    G|------------------------------------------|
    D|------------------------------------------|
    A|------------------------------------------|
    E|------------------------------------------|  x2
    
    Am                                Dm
    Quisiera remediarlo todo con algun te amo pero no sera
      G                                  C
    
  • e|-----------------------------------------------------|
    B|-5-5--5-5--3-3--1--1-1-3-5-5/8-6--6-6-5-6---5---4----|
    G|------------------------------------------6---5---0--|
    D|-----------------------------------------------------|
    A|-----------------------------------------------------|
    E|-----------------------------------------------------|
    
    e|------------------------------------------|
    B|-3-3--3-3--1-1--0--0-0-1-3-3/6-5--5-5-4-5-|
    G|------------------------------------------|
    D|------------------------------------------|
    A|------------------------------------------|
    E|------------------------------------------|  esto va dos veces
    
    La cancion epieza con un arpeguio mas o menos asi:
    
      Am                               Dm
    e|----------------------------------------------1---------------1------|
    B|---------1----------------1-----------------3---3-----------3---3----|
    G|-------2---2------------2---2-------------2-------2---2---2-------2--|
    
  • +
    ¡Colabora con nosotros!
    Envíanos tu versión de esta canción

Letra de Perdóname
Quisiera remediarlo todo con algun te amo pero no sera
sera que mi culpabilidad y mis malos tratos
tambien se cansaron de hacerme creer que tenia razon
cuando te parti en dos el corazon como remediar esta situacion
si ya perdi la cuenta de todas las veces que te pedi perdon.
Y ahora quiero cambiar pero el sol se ha metido
para convencerte que cualquiera se equivoca y solamente
te pido no me cierres la boca y me des un segundo mas
para justificarte, para demostrarte ya no te vuelvo a fallar.
Perdoname, perdoname te doy de garantia mi vida
pero tienes que creer que esto ha sido un error
quiero cambiar lo juro tu amor que yo nunca
antes me senti peor como ahora que siento que ya te perdi
por lo que mas quieras quedate a dormir
la cama es muy grande, la noche es muy fria
mis ojos sensibles y voy a llorarte por equivocarme
te pido perdon.
Perdoname, perdoname te doy de garantia mi vida
pero tienes que creer que esto ha sido un error
quiero cambiarlo juro tu amor que yo nunca
antes me senti peor como ahora que siento que ya te perdi
por lo que mas quieras quedate a dormir
la cama es muy grande, la noche es muy fria
mis ojos sensibles y voy a llorarte por equivocarme
te pido perdon.
Perdon si en exceso te hice llorar
perdon si en exceso te hice sufrir
perdon si el dolor te eloche de cobija
ponte en mi lugar ponte asi de prisa
por que los segundos avanzan y en forma de burla murmuran
el tiempo se acaba que el tiempo se agota
peeeerdon, perdon, peeeerdon, perdon...
orale eso es todo...
esta cancion se la dedico a mi ex novia sabdy




[Perdóname chords][Perdóname cifra]
© LaCuerda.net · aviso legal · privacidad · es · en · pt · contacto