Acordes de Guitarra » E »Espinoza Paz » Lo Intentamos (Tab)

Lo Intentamos
Espinoza Paz

Letras, Acordes y Tabs para Guitarra, Bajo y Ukulele

  • e-----8--8----|---6--6----|---4--4------|----3-3------------|
    B-------------|-----------|-------------|-------------------|
    G----8-8------|--7-7------|--5-5--------|---3-3-------------|
    D-------------|-----------|-------------|-------------------|
    A-------------|-----------|-------------|-------------------|
    E-------------|-----------|-------------|-------------------|
    
    
    Atencion para los acordes capo en el 1er. Traste.
    
    Estrofa
    
    D                 A                Bm  A
     Lo intentamos pero no pudo funcionar
                        G   A
     yo hize las cosas mal
                    D    A
     yo si me enamore
    
    D               A                   Bm  A
    
  • e-----8--8----|---6--6----|---4--4------|----3-3------------|
    B-------------|-----------|-------------|-------------------|
    G----8-8------|--7-7------|--5-5--------|---3-3-------------|
    D-------------|-----------|-------------|-------------------|
    A-------------|-----------|-------------|-------------------|
    E-------------|-----------|-------------|-------------------|
    
    D                 A                Bm  A
     Lo intentamos pero no pudo funcionar
                        G   A
     yo hize las cosas mal
                    Bm  A
     yo si me enamore
    D               A                   Bm  A
     Me dijiste que no sentias nada por mi
                        G  A
     que si contigo dormi
                         Bm
     que lo olvide es mejor
                                F#m
    
  •      D#               A#            Cm
    lo intentamos pero no pudo funcionar
    Gm                G#
    yo hice las cosas mal
    A#           D#   A#
    yo si me enamore
    D#                A#               Cm
    Me dijiste que no sentias nada por mi
    Gm                G#
    que si con tigo dormi
    A#
    que lo olvide mejor
    Cm
    que no te busque
                A#
    que no te llame
                              G#
    que otra persona tiene la llave
     A#                D#
    para estrar en tu vida
    
  • D                 A                Bm  A
     Lo intentamos pero no pudo funcionar
                        G   A
     yo hize las cosas mal
                    Bm  A
     yo si me enamore
    D               A                   Bm  A
     Me dijiste que no sentias nada por mi
                        G  A
     que si contigo dormi
                         Bm
     que lo olvide es mejor
                                F#m
     Que no te busque que no te llame
                                G     A
     que otra persona tiene la llave
                   D
     para entrar en tu vida
                   G
     ¿Que voy a hacer?
    
  • INTRO
    
    e-----8--8----|---6--6----|---4--4------|----3-3------------|
    B-------------|-----------|-------------|-------------------|
    G----8-8------|--7-7------|--5-5--------|---3-3-------------|
    D-------------|-----------|-------------|-------------------|
    A-------------|-----------|-------------|-------------------|
    E-------------|-----------|-------------|-------------------|
    
    solo:
    
    |-----------7--------------|
    |---7-7-7-10-10-7-10-7--77-|
    |----9-9--------------99---|
    |--------------------------|
    |--------------------------|
    |--------------------------|
    
    |-------------------------|
    |---77777-----77777-------|
    |--------7-9-7------7-9-7-|
    |-------------------------|
    |-------------------------|
    |-------------------------|
    
    |---10-10-8-10-10--10/12-15-9-|
    |-----------------------------|
    |-----------------------------|
    |-----------------------------|
    |-----------------------------|
    |-----------------------------|
    
    |---9-9-7-9-9-9-9/11-12-8-11-10-11-|
    |----------------------------------|
    |-
  • D
    e-------2---3---|
    B-----3--3---2--|
    G---2-----2-----|
    D--0------------|
    A---------------|
    E---------------|
    
    A
    e-------0---0---|
    B-----2--2---2--|
    G---2-----2-----|
    D---------------|
    A--0------------|
    E---------------|
    
    Bm
    e-------2---3---|
    B-----3--3---2--|
    G---4-----4-----|
    
  • 1)-----8--8----|---6--6----|---4--4------|----3-3------------|
    2)-------------|-----------|-------------|-------------------|
    3)----8-8--8---|--7-7--7---|--5-5---5----|---3-3-------------|
    4)-------------|-----------|-------------|-------------------|
    
    D#                A#               Cm  A#
     Lo intentamos pero no pudo funcionar
                        G#  A#
     yo hize las cosas mal
                    Cm  A#
     yo si me enamore
    
    5)---10-8-6----
    6)-------------
    
    D#              A#                  Cm  A#
     Me dijiste que no sentias nada por mi
                        G# A#
     que si contigo dormi
                         Cm
    
  • +
    ¡Colabora con nosotros!
    Envíanos tu versión de esta canción
  • Tutorial
    HD
    Como tocar Lo intentamos en Guitarra (HD)
    Tutorial
    3:47

Letra de Lo Intentamos
Atencion para los acordes capo en el 1er. Traste.
Estrofa
Lo intentamos pero no pudo funcionar
yo hize las cosas mal
yo si me enamore
Me dijiste que no sentias nada por mi
que si contigo dormi
que lo olvide es mejor
Que no te busque que no te llame
que otra persona tiene la llave
para entrar en tu vida
¿Que voy a hacer?
cuando tenga ganas de darte un beso
¿que voy a hacer?
Será muy tonto
hacerle caricias
a la pared
Saldré a buscarte
con la intencion
de volverte a ver
Me moriré
cuando te mire besando a otro
me moriré
Hace un par de días
que te marchaste
hoy mirame
Solamente quiero recuperarte
vuelve otra vez...ehhh
¿Que voy a hacer?
cuando tenga ganas de darte un beso
¿que voy a hacer?
Será muy tonto
hacerle caricias
a la pared
Saldré a buscarte
con la intencion
de volverte a ver
Me moriré
cuando te mire besando a otro
me moriré
Hace un par de días
que te marchaste
hoy mirame
Solamente quiero recuperarte
vuelve otra vez...ehhh
Lo intentamos pero no pudo funcionar
yo hize las cosas mal
yo si me, yo si me enamore




[Lo Intentamos chords][Lo Intentamos cifra]
© LaCuerda.net · aviso legal · privacidad · es · en · pt · contacto