Acordes de Guitarra » E »Eruca Sativa » Que Más (Tab)

Que Más
Eruca Sativa

  • Tablatura
    E||--------------------|--------------------|--------------------|
    B||--------------------|--------------------|--------------------|
    G||--------------------|--------------------|--------------------|
    D||--------------------|--------------------|--------------------|
    A||--3-3-3-0--6~-------|--3-3-3-0--6~-------|--3-3-3-0--6~-------|
    D||-----------7~-------|-----------7~-------|-----------7~-------|
    
    
    --------------------|--------------------|--------------------|
    --------------------|--------------------|--------------------|
    --------------------|--------------------|--------------------|
    --------------------|--------------------|--------------------|
    --3-3-3-0--6~-------|--3-3-3-0--6~-------|--3-3-3-0--6~-------|
    -----------7~-------|-----------7~-------|-----------7~-------|
    
    
    --------------------|--------------------|--------------------|
    --------------------|--------------------|--------------------|
    --------------------|--------------------|--------------------|
    --------------------|--------------------|--------------------|
    
  • +
    ¡Colabora con nosotros!
    Envíanos tu versión de esta canción

Letra de Que Más
Pediste reset, volviste a empezar solo otra vez
Aliandose a vos el fuego invadio mi mente tan friki
el dolor se va y ardiendote a vos, memoria borras
y es que el miedo te hace sentir tanto frio..
que imposible es ya dejar de calcinarlo todo. Uh!
que mas vas a quemar que mas vas a quemar
que mas vas a quemar que mas!
que mas vas a quemar que mas vas a quemar
que mas vas a quemar que mas!
que mas vas a quemar que mas vas a quemar
que mas vas a quemar que mas!
ya no esta mas quien te lastimo pero vos tambien
te fuiste con el! pasando no hay mas ni ya mas que arder ya no se esfumo y
ya no sos vos y es que el miedo te hace sentir tanto frio..
que imposible es ya dejar de calcinarlo todo.
y es que el miedo te hace sentir tanto frio..
que imposible es ya dejar de calcinarlo todo. Uh!
que mas vas a quemar que mas vas a quemar
que mas vas a quemar que mas!
ahi arranca el dibague del final.



© LaCuerda.net · aviso legal · privacidad · contacto
DINAMICO