Acordes de Guitarra » E »Eruca Sativa » Antes que vuelva a caer (Tab)

Antes que vuelva a caer
Eruca Sativa

Letras, Notas, Punteos, Tablaturas y Acordes de Guitarra (Tabs & Chords)

  • Letra y Acordes
    1---4---4---4---4---4---4---5-54-----
    2--5-5-5-5-5-5-5-5-5-5-5-5-5-5--5----
    3-6---6---4---4---3---3---2------4---
    4------------------------------------
    5------------------------------------
    6------------------------------------
    
    E5              C5
    Llamare a tu puerta
    E5         C5     A
    Cortare tus alas
               C5
    Antes que vuelva a caer
    
    Riff1: E5 - C5
    
    E5            C5
    Sentirás mi fuerza
    E5              C5  A
    La que nunca estaba
    
  • Tablatura
      Em              C
    1--------------------------------
    2--------------------------------
    3-----------------5-x-5-x-5-x-5--
    4-2-x-2-x-2-x-2-x-5-x-5-x-5-x-5-- x2
    5-2-x-2-x-2-x-2-x-3-x-3-x-3-x-3--
    6-0-x-0-x-0-x-0-x----------------
    
    (Las "x" Significan que tienen que
     rasguear sin apretar mucho las cuerdas)
    
      Em              C
    1--------------------------------
    2--------------------------------
    3-----------------5-x-5-x-5-x-5--
    4-2-x-2-x-2-x-2-x-5-x-5-x-5-x-5-- x2
    5-2-x-2-x-2-x-2-x-3-x-3-x-3-x-3--
    6-0-x-0-x-0-x-0-x----------------
    
    Llamare a tu puerta,Cortare tus alas.
    
  • Tablatura
    Intro: E5  C5(add9)  (x2)
    
    E5              C5(add9)
    Llamaré a tu puerta.
    E5         C5(add9)
    Cortaré tus alas,
    Aadd9            Cmaj7
         antes que vuelva a caer.
    
    Riff 1 (x4)
         E    E5    C5(add9)
    e|-----------------------|
    B|-----------------------|
    G|--------9----7---7-----|
    D|--------9----10--10----|
    A|--------7----7---7-----|
    E|---0---------8---8-----|
    
    E5            C5(add9)
    Sentirás mi fuerza,
    
  • +
    ¡Colabora con nosotros!
    Envíanos tu versión de esta canción

Letra de Antes que vuelva a caer
Llamare a tu puerta
Cortare tus alas
Antes que vuelva a caer
Riff1: E5 - C5
Sentirás mi fuerza
La que nunca estaba
Antes que vuelva a caer
Brillare en tu noche
Mientras mi ángel calla
Antes que vuelva a caer
Antes que vuelva a caer
(todo sobre Riff2)
Hoy seré quien de el paso hacia el final
Ya no hay lugar para tu sed de mal
(hace lo mismo que antes)
Llamare a tu puerta
Sentirás mi fuerza
Brillare en tu noche
Mientras mi ángel calla
(riff2)x2
Hoy seré quien de el paso hacia el final
Ya no hay lugar para tu sed de mal
(riff2)x2
Fuimos tan lógicos que amar fue irreal
Ya no hay lugar para ambos



© LaCuerda.net · Aviso Legal · Privacidad