Acordes de Guitarra » E »Eruca Sativa » Mi Apuesta (Tab)

Mi Apuesta
Eruca Sativa

Letras, Notas, Punteos, Tablaturas y Acordes de Guitarra (Tabs & Chords)

  • Letra y Acordes
    Gm              A#                  D#
    Soñaba y volaba aunque todo era gris,
                   C
    un mundo hecho de espinas.
    Gm              A#             D#
    La gente pasaba, dejando el metal
    C
    y el sonreía..
    
    Dm         Gm                  A#            D#
    ¿Dónde,...dónde estará el cielo ese que tanto busco?
    Dm           Gm                    D#
    ¿Cuándo,...cuándo vendrán los días...?
    
    Gm            A#              D#
    Buscaba un refugio para su dolor
                      C
    donde matar sus dias.
    Gm             A#                   D#
    No hallaba la forma de dar con su Dios
    
  • Tablatura
    e|----------------------------------------
    B|----------------------------------------
    G|----------------------------------------
    D|---------11-10-8--------8--------7------
    A|--10h8-------------10-8-----10-8---8----
    E|-------10--------------------------------
    
      ----------------------------------------|
      ----------------------------------------|
      ----------------------------------------|
      ---------11-10-8--------8--------7------|
      --10h8-------------10-8-----10-8--------|
      -------10--------------------------------|
    
    
    Gm              A#                  Gm
    Soñaba y volaba aunque todo era gris,
                   D#*
    un mundo hecho de espinas.
    Gm              A#             Gm
    
  • +
    ¡Colabora con nosotros!
    Envíanos tu versión de esta canción

Letra de Mi Apuesta
Soñaba y volaba aunque todo era gris,
un mundo hecho de espinas.
La gente pasaba, dejando el metal
y el sonreía..
¿Dónde,...dónde estará el cielo ese que tanto busco?
¿Cuándo,...cuándo vendrán los días...?
Buscaba un refugio para su dolor
donde matar sus dias.
No hallaba la forma de dar con su Dios
¿Dónde...
Sólo dame una razón,
Para seguir pateando esta miseria.
¿Cuánto cuesta la felicidad?
ésta es mi apuesta..
Contar las monedas para masticar.
Los perros se acercan y ya no da más.
Las caras que pasan lo hacen sangrar.
Ya nadie repara en su mendigar
¿Dónde...
Sólo dame....



© LaCuerda.net · Aviso Legal · Privacidad