Acordes de Guitarra » E »Eruca Sativa » Desdobla (Tab)

Desdobla
Eruca Sativa

  • Tablatura
    E|-----------------------------------------------------------------------|
    B|-----------------------------------------------------------------------|
    G|-----------------------------------------------------------------------|
    D|-----------------------------------------------------------------------|
    A|---------6------6-8-----------------------6------6-8-------------------|
    D|-3-3-/10-----10-----9-8--6--6-6-7-8-3-/10-----10-----9-8--6--6-6-7-8-3-|
    
    
    No temo al confesar
    que reconozco a alguien más
    en mi piel, en mi ser,
    somos dos, o no lo ves?
    
    
    Riff 1
    
    E|-----------------------------------------------------------------------|
    B|-----------------------------------------------------------------------|
    G|-----------------------------------------------------------------------|
    D|-----------------------------------------------------------------------|
    
  • +
    ¡Colabora con nosotros!
    Envíanos tu versión de esta canción

Letra de Desdobla
No temo al confesar
que reconozco a alguien más
en mi piel, en mi ser,
somos dos, o no lo ves?
Riff 1
Puedo sentir que espera el momento exacto de salir
Riff 2
Quiero todo el control
para hacerlo a mi manera
Quiero todo el control
Nunca estuve tan en mí co mo hoy
Riff 1
Sé muy bien lo que ves,
es lo que quiero mostrar.
Pero hay más qu esta paz
en mi cara oculta está
Riff 1
Ya no puedo resignar
a mi estado ideal,
sale a respirar
y no quiero ahogarlo
Insatisfacciones
me queman por dentro,
se desequilibran,
liberan mi opuesto
Puedo sentir que espera el momento exacto de salir
Riff 2 (la 4ta vez es hasta el *)
*
Quiero todo el control
para hacerlo a mi manera
Quiero todo el control
Riff 3
D|-3-3-3-8-8-8-8-8-6-7-8-6-7-8-6--| X4
A|-3-3-3-6-6-6-6-6-6-7-8-6-7-8-6--|
Quiero todo el control
para hacerlo a mi manera
Quiero todo el control
Quiero todo el control
ACORDES:



© LaCuerda.net · aviso legal · privacidad · contacto
DINAMICO