Acordes de Guitarra » E »Erick Elera » Ven (Tab)

Ven
Erick Elera

Letras, Acordes y Tabs para Guitarra, Bajo y Ukulele

  • G                            Em
    Hoy como cadia dia al despertar
                                     C
    siento que eres mia aunque no estas
                                      D
    y escucho tu susurrar creo enloquesco
    
    
    G                        Em
    Siento que la vida se me va
                                          C
    no encuentro la salida de esta tempestad
                                         D
    llorando nada de arreglar que sufrimiento
    
    
    G                     Em
    Pero el mundo sigue igual
                    C
    mil cosas te diran
    
  • INTRO: C - G - Am - D (2veces)
    
    
    G                            Em
    Hoy como cadia dia al despertar
                                     C
    siento que eres mia aunque no estas
                                      D
    y escucho tu susurrar creo enloquesco
    
    
    G                        Em
    Siento que la vida se me va
                                          C
    no encuentro la salida de esta tempestad
                                         D
    llorando nada de arreglar que sufrimiento
    
    
    G                     Em
    
  • Gsus9  032033
    Em9    022033
    lam9   002213
    C      032010
    G      320033
    D      000232
    
    
    
    Gsus9                       Em9
    Hoy como cadia dia al despertar
                                    LAm9
    siento que eres mia aunque no estas
                                      D
    y escucho tu susurrar creo enloquesco
    
    
    Gsus9                  Em9
    Siento que la vida se me va
                                         LAm9
    
  •   DO - C                             SOL - G
    1---0-----------0-----------------------3------------3-------------------|
    2---1-----1--------1--------------------0------0--------0----------------|
    3---0---0----0--------------0-----------0---0----0-----------------0-----|
    4---2---------------------2-----2-------0------------------------0----0--|
    5---3------------------3----------------2---------------------2----------|
    6---0-----------------------------------3--------------------------------|
    LAm - Am
    1---0----------0---------------|
    2---1-----2-------2------------|
    3---2---2----2------------2----|
    4---2-------------------2---2--|
    5---0-----------------0--------|
    6---0--------------------------|
    
     RE - D
    1---2-------------2-----------2---4---------------------------------|
    2---3------3---------3------------------2---4---2---0---------------|
    3---2---2----2---------------------------------------------2-----0--|
    4---0---------------------------------------------------------------|
    
  • +
    ¡Colabora con nosotros!
    Envíanos tu versión de esta canción

Letra de Ven
Hoy como cadia dia al despertar
siento que eres mia aunque no estas
y escucho tu susurrar creo enloquesco
Siento que la vida se me va
no encuentro la salida de esta tempestad
llorando nada de arreglar que sufrimiento
Pero el mundo sigue igual
mil cosas te diran
y lo que siento omitiraaaaan
Pero deseo amarte hasta el final
mi corazón encontraras
y el destino sonreiraaaaa...
Ven quedate a mi lado
que te amo demasiado
no me dejes varaaaado...
Ven di que me has extrañado
no es justo y que me has olvidado
yo sigo enamoraaado...
Se que yo nunca te supe amar
mis errores tu supiste perdonar
y aunque no falle comprendo que no has de confiar
Se que es dificil regresar
tal vez nunca tuvimos amistad
vivir de culpas y mucho maaaaaas
Ven quedate a mi lado
que te amo demasiado
no me dejes varaaaado...
Ven di que me has extrañado
no es justo y que me has olvidado
yo sigo enamoraaado...
Veeeeeeeeeeeeeeeeeeeeeeeeeeeeeeeen
Amor veeeeeeeeeeeeeeeeeeeeeeeeeeen
Ven quedate a mi lado
que esto es demasiado
no me dejes varaaaado...
Ven di que me has extrañado
no es justo y que me has olvidado
yo sigo enamoraaado...




[Ven chords][Ven cifra]
© LaCuerda.net · aviso legal · privacidad · es · en · pt · contacto