Acordes de Guitarra » E »Enrique Iglesias » Bailamos (Tab)
  • Letra y Acordes
    ||-----------------|-----------------|-----------------|-----------------|
    ||-----------------|-----------------|-----------------|-----------------|
    ||---------4h5-4-2-|-4~~-2-----------|-----------------|-----------------|
    ||------/2---------|-------3~~~~-----|-2h3p2h3p2~~~~---|-----------------|
    ||-----------------|-----------------|-----------------|-----------------|
    ||-----------------|-----------------|-----------------|-----------------|
    
      Am                Dm                                Am
    |-----------------|---------------------------------|-----------------|
    |-----------------|---------------------------------|-----------------|
    |---------4h5-4-2-|-4~~~~---2-----------------------|-----------------|
    |------/2---------|-------------3~~~~-------2h3p2p0-|-2-------------2-|
    |-----------------|---------------------------------|-----------------|
    |-----------------|---------------------------------|-----------------|
    
     Dm                                  Am
    |-3-----1---0---------------------||------|
    |---------------3---------0h1-0---||------|
    |-----2-------------------------2-||-2----|
    |-----------------------2---------||------|
    
  • Tablatura
    Lam: X02210
    Rem: X00231
    Sol: 355433
    Fa: 133211
    Mi: 022100
    Do: 032010
    
    Bailamos :
    
             *    *    *
    e ||---------------------------------------------------------
    B ||---------------------------------------------------------
    G ||:-----4h5--4p2--4p2--------------------------------------
    D ||:--/2------------------3~~~~-2h3p2h3p2~~~~---------------
    A ||---------------------------------------------------------
    E ||---------------------------------------------------------
    
    Esta noche bailamos
    te doy toda mi vida
    
    
  • Tablatura
    Hola a todos este es el solo de
    la canción bailamos,espero que lo
    saquen tal y como es y disfrutenlo.
    
    1-------------------------------------------
    2-------------------------------------------
    3-------------------------------------------
    4-----9-10-9-7-9-7--------------------------
    5-6-7--------------7-6-7--------------------
    6-------------------------------------------
    
    
    1----------------------------3-1-0-----------
    2-0-1-0---0------------------------3-1-0-----
    3-------2---2--------------2-------------2---
    4-------------3--2-3-2-0-2-------------------
    5--------------------------------------------
    6--------------------------------------------
    
    
    Bueno aqui esta el solo de esta rola
    espero que lo disfruten y para que lo
    saquen mas bien deslizen en donde sea 
    nesesario.
    
    dudas o sugerencias escribanme a mi correo
    cure290@hotmail.com
    Tambien si tienen otros solos de otras rolas 
    no duden en enviarmelo.
  • +
    ¡Colabora con nosotros!
    Envíanos tu versión de esta canción

Letra de Bailamos
Esta noche bailamos
te doy toda my vida...
Verse 1
Tonight we dance
I leave my life in your hands
We take the floor
Nothing is forbidden anymore
Don't let the world in outside
Don't let a moment go by
Nothing can stop us tonight
Chorus
Bailamos...Let the rhythm take you over
Bailamos...Te quiero amor mio
Bailamos...Gonna live this night forever
Bailamos...Te quiero amor mio
Te quiero
Interlude
|: Am Dm :|
Verse 2
Tonight I'm yours
We can make it happen I'm so sure
Now I'm letting go
There is something I think you should know
I won't be leaving your side
We're gonna dance through the night
I want to reach for the stars
Chorus
Bailamos...Let the rhythm take you over
Bailamos...Te quiero amor mio
Bailamos...Gonna live this night forever
Bailamos...Te quiero amor mio
Te quiero
Bridge
Tonight we dance
Like no tomorrow
If you will stay with me
Te quiero mi amor...
|: Am G F :| (4 times)
Quédate conmigo...
Esta noche bailamos...
Outro
Bailamos...Let the rhythm take you over
Bailamos...Te quiero amor mio
Bailamos...Gonna live this night forever
Bailamos...Te quiero amor mio



© LaCuerda.net · aviso legal · privacidad · contacto