Acordes de Guitarra » E »Enrique Bremer » En tu luz (Tab)

En tu luz
Enrique Bremer

Letras, Acordes y Tabs para Guitarra, Bajo y Ukulele

  • e|------------------------------------------------------------|
    B|--------12-12-12-10-10-10-9-9-9-9-9-9-----------------------|
    G|--9-9-9-----------------------------------------------------|
    A|------------------------------------------------------------|
    D|------------------------------------------------------------|
    E|------------------------------------------------------------|
    2da lira
    e|------------------------------------------------------------|
    B|------------------------------------------------------------|
    G|--9-9-9-9-9-9-9-9-9-9-9-9-9-9-9-9-9-9-9---------------------|
    D|--9-9-9-9-9-9-9-9-9-9-9-9-9-9-9-9-9-9-9---------------------|
    A|--7-7-7-7-7-7-7-7-7-7-7-7-7-7-7-7-7-7-7---------------------|
    E|------------------------------------------------------------|
    
    1era
    e|------------------------------------------------------------|
    B|--------12-12-12-10-10-10-9-9-9-9-9-9-----------------------|
    G|--9-9-9-----------------------------------------------------|
    A|------------------------------------------------------------|
    D|------------------------------------------------------------|
    
  • +
    ¡Colabora con nosotros!
    Envíanos tu versión de esta canción

Letra de En tu luz
2da lira
1era
2da
1era
2da
1era
2da
Tan consumidos por tu amor
ke hemos perdido el sentido de nuestro alrededor
Ya nada nos puede deslumbrar
nada en este mundo se te puede comparar Jesús
pre-coro
nadie como tu
nadie como tu
nadie como tu
nadie como tu
eres nuestra herencia mas ke suficiente nuestro redentor y rey
muestra tus caminos y andaremos en tu luz a la luz de tu verdad
al llegar
aquí debes de tokar la ultima parte del
en tu luz vemos la luz en tu luz vemos la luz en tu luz vemos la luz
en tu luz vemos la luz en tu luz vemos la luz en tu luz vemos la luz
en tu luz vemos la luz en tu luz vemos la luz en tu luz vemos la luz
en tu luz vemos la luz en tu luz vemos la luz en tu luz vemos la luz
este es el adorno ke se oye en el puente
Esta es toda la kncion solo deben oir y ordenarla pero es to es todo
lo ke hacen si tienen dudas o kieren ke les ayude a sacar otra kncion
y todo loke hagan siempre haganlo para la gloria de dios

Video de En tu luz
[]




[En tu luz chords][En tu luz cifra]
© LaCuerda.net · aviso legal · privacidad · es · en · pt · contacto