Acordes de Guitarra » E »Enjambre » Yugular dulce hogar (Tab)

Yugular dulce hogar
Enjambre

Letras, Acordes y Tabs para Guitarra, Bajo y Ukulele

  • Intro: Bm
    
    A                Bm
    puede ser que me quema el sol
                                   A
    puede que por eso perdi el control
                    Bm
    el ritmo de una feroz
                                     A
    ciudad que me vence siempre en velocidad
                          Bm
    vence tambien a mi palpitar
                             E
    que me guia hacia tu yugular
            A    F#m         Bm
    en esta faz no hay un lugar
    E        A
    como mi hogar
    F#m                          Bm
    me abruman los dias hoy tan caros
    
  • A                Bm
    puede ser que me quema el sol
                                  A
    puede que por eso perdi el control
                      Bm
    el ritmo de una feroz ciudad
                                  A
    que me vence siempre en velocidad
                        Bm
    vence tambien a mi palpitar
                              Dm       E
    que me guia hacia tu yugulaaaaar
    
            A
    en esta faz
    F#m         Bm
    no hay un lugar
    E          A
    como mi hogar
        F#m                    Bm
    
  •   Bm
    e|-----------------------------------------------------------
    B|-----------------------------------------------------------
    G|-----------------------------------------------------------
    D|-----2h4-2---------------2h4-2---------------2h4-2---------
    A|---2-------4-2-0-2-----2-------4-2-0-2-----2-------4-2-0-2-
    E|-2-----------------0h2-----------------0h2-----------------
    
    e|----------------------------
    B|----------------------------
    G|----------------------------
    D|-------2h4-2----------------
    A|-----2-------4-4-2-0-2------
    E|-0h2-------------------0h2--
    
    
    A                Bm
    puede ser que me quema el sol
                                  A
    puede que por eso perdi el control
    
  • |-------------------------|
    |-------------------------|
    |.-----------------------.|3 tiempos
    |.-----2h4--2------------.|
    |----2---------4p2p0-2-0--|
    |--2----------------------|
    
    |-------------------------|
    |-------------------------|
    |-------------------------|
    |-----2h4-2---------------|
    |---2-------4-4p2p0-2-0---|
    |-2---------------------2-|
    
    Guitarra 2
    
       Bm
    |--2------|
    |--3------|
    |.-4-----.|4 tiempos
    
  • +
    ¡Colabora con nosotros!
    Envíanos tu versión de esta canción

Letra de Yugular dulce hogar
puede ser que me quema el sol
puede que por eso perdi el control
el ritmo de una feroz
ciudad que me vence siempre en velocidad
vence tambien a mi palpitar
que me guia hacia tu yugular
en esta faz no hay un lugar
como mi hogar
me abruman los dias hoy tan caros
y entre mis penurias tu amparo
no hay mejor lugar en esta faz
que en tu yugular mi hogar
puede ser que la luna me corteja
y cada noche me ahoga en otra moraleja
transito en calles de luz neon
y en el regocijo pierdo el corazon
ya no tengo un palpitar
con mis colmillos hoy puedo encontrar...
tu yugular.. mi dulce hogar
en esta faz.. no hay un lugar
como mi hogar
me abruman los dias hoy tan caros
y entre mis penurias tu amparo
no hay mejor lugar
en esta faz que en tu yugular mi hogar




[Yugular dulce hogar chords][Yugular dulce hogar cifra]
© LaCuerda.net · aviso legal · privacidad · es · en · pt · contacto