Acordes de Guitarra » E »Enjambre » Visita (Tab)

Visita
Enjambre

Letras, Acordes y Tabs para Guitarra, Bajo y Ukulele

  • Em - Am - D - Bm (x2)
    
       Em         Am
    Te pido me perdones
            D            Bm
    por mis desapariciones
    Em               Am
    el no verte por dias
          D           Bm
    no es lo que tu supones
    
    Em                Am
     que no es gusto, no es mi voluntad
    D                Bm
     que es lo que te digo
    Em                Am
     que aunque no me veas yo voi a estar
    D
      siempre contigo
    
    
  •     Em     Am     D      Bm
    E|----------------------------|
    B|----------------------------|
    G|--12-12--9--9---11-11--7-7--|
    D|--14-14--10-10--12-12--9-9--|
    A|--14-14--12-12--12-12--9-9--|
    E|----------------------------|
    
    Esto lo hace la 1ra guitarra en la segunda vuelta
     antes de empezar cn la letra
    
    E|-------------------------------------|
    B|-------12-12-12-12-12-12-12-12-12-12-|
    G|-------------------------------------|
    
    verso
       Em         Am
       Te pido me perdones
    E|-7--10--7--8--10--8--|
    B|-8--8---8--10-10-10--|
    
  • que onda, gente que le gusta enjambre, esta es mi primer tab espero
    les lata...
    
    
    
    intro:
    
    ----------------------
    --9-9-2-2-7-7-4-4-----
    --8-8-1-1-7-7-3-3-----
    ----------------------
    ----------------------
    ----------------------
    
    
    
    Pues no es gusto no es mi voluntad
    
    -----------------------
    -----------------------
    ------7-9-7------------
    -7--9-------10-9-7-----
    -------------------9---
    -----------------------
    
    
    cree lo que te digo            x2
    
    -----------------------
    -----------------------
    -------7-9-------------
    -7--9-------10--9------
    -----------------------
    -----------------------
    
    
    siempre contigo
    
    -------------------------
    -------------------------
    1s-4444-5555-7777-11 11 11 11
    -------------------------
    -------------------------
    -------------------------
    
    La semana me parte en dos de viernes a domingo
    tu visita me repara cuando nos conecta entonces vivo
    quiero que te vengas a vivir todos los dias conmigo
    quiero que te vengas a vivir todos los dias conmigo
    
    
    ---------------------
  • Aqui esta la tablatura,la saque de oido pero se escucha bien
    puedes checar mi video en youtube para que veas como suena
    
    http://www.youtube.com/watch?v=hzDVoGMV5uk
    
    
    Intro
    
    Primera guitarra
    
    e||----------------------------------|
    B||--8---8------1---1----7--7----3--3|
    G||--9---9------2---2----7--7----4--4|(x2)
    D||----------------------------------|
    
    Segunda guitarra
    
    Esta parte empieza en la segunda vez que tocan el intro y
    va subiendo el volumen,esuchen bien la rola
    
    e||----------------------------------|
    B||--8-8-8-8-8-8-8-8-8-8-8-8-8-8-8---|
    G||----------------------------------|
    
    Y después cambia a
    
    e||---10--7---10--8---12---10---12---10--|
    B||---8---8---8---8---10---10---10---10--|(x2)
    G||--------------------------------------|
    
    Mientras que la primera guitarra sigue
    tocando el intro solo en este primer verso
    
    
    En la parte de”Que no es gusto” la segunda guitarra toca
    
    e||---------------------------------------------------|
    B||---------------------------------------------------
  • Bien chavos/a aqui les dejo esta rola en bajo
    que esta uff muy buena y muy facil de tocar
    solo tienen que ver el tiempo y el ritmo estoy 100%
    seguro de que esta correcta xD
    
    Suerte
    
    
    
    Te pido me perdones
    por mis desapariciones
    el no verte por dias
    no es lo que tu supones
    
    G|--------------------------------|
    D|--------------------------------|
    A|--7-7-----5-5-------------------|(x2)
    E|------5-5-----7-7---------------|
    
    
    Que no es gusto, no es mi voluntad
    que es lo que te digo
    que aunque no me veas yo voi a estar
    siempre contigo
    
    G|------------------------------------------------------|
    D|------------------------------------------------------|
    A|--7-7--5-3-------5-5-----7-7--5-3--------(5x8)--------|
    E|-----------7-5-2-----7-7-----------7-5-2--------------|
    
    La semana me parte en dos
    de viernes a domingo
    tu visita me repara cuando nos conecta entonces vivo
    
    G|-----------------------------------------------------------|
    D|-----------------------------------------------------------|
    A|--10
  • +
    ¡Colabora con nosotros!
    Envíanos tu versión de esta canción

Letra de Visita
Te pido me perdones
por mis desapariciones
el no verte por dias
no es lo que tu supones
que no es gusto, no es mi voluntad
que es lo que te digo
que aunque no me veas yo voi a estar
siempre contigo
La semana me parte en dos
de viernes a domingo
tu visita me repara cuando nos conecta entonces vivo
quiero que te vengas a vivir, todos los dias conmigo
quiero que te vengas a vivir, todos los dias conmigo
Es el viernes y su amanecer
no quiero que te asustes
al despertar no me vas a ver
te ruego no me busques
vive como si estuviera ahi
ya vendra domingo
no te olvides nunca de quien fui
La semana me parte en dos
de viernes a domingo
tu visita me repara cuando nos conecta entonces vivo
quiero que te vengas a vivir, todos los dias conmigo
quiero que te vengas a vivir, todos los dias conmigo
que es más pausado, escuchando la rola sale facil)
La semana me parte en dos
de viernes a domingo
tu visita me repara cuando nos conecta entonces vivo
quiero que te vengas a vivir, todos los dias conmigo
quiero que te vengas a vivir, todos los dias conmigo
(cambia la ritmica)
quiero que te vengas a vivir, todos los dias conmigo
quiero que te vengas a vivir, todos los dias conmigo
quiero que te vengas a vivir, todos los dias conmigo
quiero que te vengas a vivir, todos los dias conmigo
quiero que te vengas a vivir, todos los dias conmigo
quiero que te vengas a vivir, todos los dias conmigo




[Visita chords][Visita cifra]
© LaCuerda.net · aviso legal · privacidad · es · en · pt · contacto