Acordes de Guitarra » E »Enjambre » Intruso (Tab)

Intruso
Enjambre

Letras, Acordes y Tabs para Guitarra, Bajo y Ukulele

  • F#  G#m  2x
    
        F#
    Hay un intruso en mi cuarto
                    G#m
    Lo veo por la ventana
          G#m
    Yo afuera y el adentro un santo
                     F#
    Yo el de vida profana
    
    F#
    Ese intruso en mi cuarto
                     G#m
    Se viste con mi ropa
         G#m
    Le grito no me escucha y cuanto más trato
                           F#
    Más se apropia de mis cosas
    
    
  • RIFF 1
    e|-------------------------------------
    B|---18--18--18--18--18--18--18—-18----
    G|-18--18--18--18--18--18--18--18------
    
    RIFF 2
    e|-------------------------------------
    B|-----16--16--16--16--16--16--16—-16--
    G|-18----18--18--18--18--18--18--18----
    
    RIFF 3
    e|-------------------------------------
    B|-----14--14--14--14--14--14--14—-14--
    G|-16----16--16--16--16--16--16--16----
    
    RIFF 4
    e|-----14--14--14--14--14--14--14--14--
    B|-18----18--18--18--18--18--18--18----
    G|-------------------------------------
    
    RIFF 5
    e|-------------------------------------------------
    B|-------------------------------------------------
    G|--11-10-11-10-11-10-11-10-11-10-11-10-11-10-11-10
    
    RIFF 6
    D|---------4-4----
    A|-----4-6-----6-4
    E|-2-2------------
    
    RIFF 7
    D|---------6-6----
    A|-----4-8-----8-4
    E|-6-6------------
    
    RIFF 8
    D|---------8-8----
    A|-----6-9-----9-6
    E|-7-7------------
    
    INTRO
    e|---------13-18--18---18-13----------------
    B|----14-16-----------------16-14----14-----
    G|----------------------------
  • +
    ¡Colabora con nosotros!
    Envíanos tu versión de esta canción

Letra de Intruso
Hay un intruso en mi cuarto
Lo veo por la ventana
Yo afuera y el adentro un santo
Yo el de vida profana
Ese intruso en mi cuarto
Se viste con mi ropa
Le grito no me escucha y cuanto más trato
Más se apropia de mis cosas
Es de anatomía
Idéntica a la mía
Su rostro es le alegría
El mío es de agonía
pero lleva estas notas XD)
Miseria tesoro
El ríe yo lloro
Los míos lo adoptan lo arropan
De lo que despoja se apropia
Felices yo triste
Intruso me desapareciste




[Intruso chords][Intruso cifra]
© LaCuerda.net · aviso legal · privacidad · es · en · pt · contacto
DINAMICO