Acordes de Guitarra » E »Enjambre » El último tema (Tab)

El último tema
Enjambre

Letras, Acordes y Tabs para Guitarra, Bajo y Ukulele

  • intro:Am D7 Bm (x2) y la tercera hasta D7
    
    
                         G  Cm                   G
    Soy culpable del pecado de no haberme percatado
    Cm                  G                    Cm
    Que lo nuestro había acabado horas después
                     G
    De haber empezado
                               G
    Más hoy me siento diferente
    Cm                       G
    Pues  encontré a alguien más
    Cm                  G   Em
    Que me acepta definitivamente
          Am         G     Em      Am
    Ahora ya pude dejar y puedo voltear
                  Cm
    Atrás sin llorar
        G      Em   Am        Bm
    
  • -------## Tablatura de mi versión para Ultimo Tema de Enjambre,
    por Fernando Arroyo, checa mi
    cover, para mayor referencia de la tab, en youtube,
    http://youtu.be/Yj7uSNbHWdg
    además, podrás bajar los backing tracks para practicar :)
    Comentarios o sugerencias a fergto78@hotmail.com
    http://www.facebook.com/fergto78
    -------##
    
    -Afinación Estándar
    -Acordes sin tiempos
    
    Guitarra 1
    
    Intro
        Am     D7    Gmaj7
    e|--5------5------X------|
    B|--5------7------3------|
    G|.-5------5------4-----.|2 tiempos
    D|.-7------7------4-----.|
    
  • Intro: Am D7 Bm x2 D7
    
                         G  Am                   G
    Soy culpable del pecado de no haberme percatado
    Am                  G                    Am
    Que lo nuestro había acabado horas después
                     G  (G2)
    De haber empezado
                               G
    Más hoy me siento diferente
    Am                       G
    Pues  encontré a alguien más
    Am                      G   Em
    Que me ha aceptado definitivamente
          Am D7        G     Em      Am
    Ahora ya pude dejar y puedo voltear
    D7        Cm
    Atrás sin llorar
    G2   Am       G
    B|--------|--------|
    
  • --El ultimo tema—
    Verso
    
    G|--------------|--|---|-------|--|-------------------------------|--|---
    D|--------------|X3|---|-------|X2|-------------------------------|X2|---
    A|------------5-|--|---|-4-5555|--|-------------------------------|--|---
    E|-33-33-55-2---|--|-3-|-------|--|-33333-000000-55555/1010101010-|--|-88
    
    Coro
    
    G|---------------------------------------|--|-------------------------|
    D|----5---5---------------7---7---—9---9-|X2|-------------------------|
    A|------------7---7----------------------|--|-------------------------|
    E|-33-—33---00-—00-----55-—55---77—77----|--|-33333-00000-55555-77777-|
    
    G|----------------------------------|
    D|----------------------------------|
    A|-----------------3333333-55555555-|
    E|-3333333-0000000------------------|
    
    Solo 1
    
    G|-------------------------|--|--------------||
    D|-------------------------|X3|--------------||
    A|------5555575---------22-|--|-----55555555-||
    E|-5555---------333-333----|--|-5555---------||
    
    Outro
    
    G|-------------|
  • +
    ¡Colabora con nosotros!
    Envíanos tu versión de esta canción

Letra de El último tema
Soy culpable del pecado de no haberme percatado
Que lo nuestro había acabado horas después
De haber empezado
Más hoy me siento diferente
Pues encontré a alguien más
Que me acepta definitivamente
Ahora ya pude dejar y puedo voltear
Atrás sin llorar
Más te mereces un último tema
Te adoraba aunque a mi alma
Metiste en problemas mereces que te cante
Que fue un gusto amarte
Mereces saber que soy feliz
Ahora que al fin pude dejarte
Lo siento si te duele la noticia
Más cuando duele esta en mi duelo yo
Siento si interrumpí esa sonrisa
Que me cautivaba, la misma
Que a mi me endulzaba no sabe a nada
Se derraman despedidas
Por que llamábamos una familia
Y el día que no me alabes de tiempo
Fue el día de tu partida
te mereces un último tema
Te adoraba aunque a mi alma
Metiste en problemas mereces que te cante
Que fue un gusto amarte
Mereces saber que soy feliz
Ahora que al fin pude dejarte
Ya no me duele nada ver lo que me diste
No me conmueven más, tus ojos tristes




[El último tema chords][El último tema cifra]
© LaCuerda.net · aviso legal · privacidad · es · en · pt · contacto