Tablatura para Bajo de Enanitos Verdes: Tequila
Conexión · Inscripción
Letras y Acordes
Pantalla Completa
Imprimir
Versión Texto
Añadir Favorito
Otras Versiones

Mostrar Diagramas
Desfile Automático
Formato del Texto


Enanitos Verdes
Tequila(BAJ)
calidad:
enan0694
AUTOR: Felipe Staiti
ALBUM: Nectar
Enviado por Ezequiel
TEQUILA - Versión En Vivo

Intro de Batería
Empieza un arpegio de la guitarra que es  Lam - Do - Sol - Re - Do
Antes de que Marciano cante, hace esto en el bajo:

G--------------------------------------------------------
D-----14-12--------------------------14---------------14^
A-12-------14-12-12--15h17-15-15--15-------------14-17---
E--------------------------------------15-15--15---------

Descansa bajo, queda bateria y guitarra arpegiando…
Marciano canta:

Me pasé la noche,
Bebiendo tequila,
Todo por que vos,
Ya no me querías.

Me puse muy loco,
Por que no venías,
Pude controlar,
Mi instinto suicida...

Y Empieza el ritmo metalero, el coro para ser preciso, donde
entra ya el bajo..
(Nací para sufrir..)

G--------------------------
D--------------------------
A-------33333-------555-333 x 8 veces
E-555555------333333-------

Cambio de ritmo.
De ahí, va el intermedio de Marcelo Lucero, y el bajo acompañando
esto, hace lo sig.:
(Son algo largos los tiempos pero estén atentos..)

G--------------------------------------------5-----------------
D------------------12-12-11-11-10-10-9-8-7-------5-------------
A-------------10------------------------------------55-44-33--3
E-5-----8------------------------------------------------------

G-------------------
D-------------------
A---------5--3------
E-3---5---------3--5

Descansa bajo, queda arpegio de guitarra y batería, Marciano
canta lo sig.:

Me pasé la noche,
Esperando el día,
Esperando el día,
Bebiendo tequila.

Me puse muy loco,
Encendí un pinito,
Que se fue quemando,
Solito, solito…

Vuelve ritmo metalero y haces de nuevo el coro:
G--------------------------
D--------------------------
A-------33333-------555-333 x 8 veces
E-555555------333333-------

Después de esto hay un cambio de ritmo..
(¿Donde estas?..)

G----------------------------------------------
D-------------------0--------------------------
A-2-2-2---------2-2-------2-3-5--2-2-2---------
E--------3--3-3-------2-3--------------3--3-3-

En la parte donde dice “¿Dónde estás?”
Ahí cambia y es así..
“¿Dónde estás?”..
G----------------------
D----------------------
A--3-----7-7-----10-10-
E----------------------

“¿Dónde estás?”
G----------------------
D----------------------
A--3-----7-7-----10-10-
E----------------------

“¿Dónde estás?” (REMATE)
G---------
D---------
A---------
E--5555555

Vuelve ritmo metalero y haces de nuevo el coro:
G--------------------------
D--------------------------
A-------33333-------555-333 x 8 veces
E-555555------333333-------

Sólo final de la guitarra de Staití:

G--------------------------
D--------------------------
A-------33333-------555-333 x 8 veces
E-555555------333333-------

Ya ksi terminando la canción el bajo cierra con esto:

G-----------
D-----------
A-555-333---
E--------555

Rola chidisima de los enanos, no? Ke vivan los enanos y recuerden
siempre apoyar a las bandas latinas!!!

Fin…
Este fichero es trabajo propio de su transcriptor y representa su interpretación personal de la canción. El material contenido en esta página es
para exclusivo uso privado, por lo que se prohibe su reproducción o retransmisión, así como su uso para fines comerciales.
© LaCuerda.net · Aviso Legal · Privacidad