Tablatura para Bajo de Enanitos Verdes: No me dejes caer
Conexión · Inscripción
Letras y Acordes
Pantalla Completa
Imprimir
Versión Texto
Añadir Favorito
Otras Versiones

Mostrar Diagramas
Desfile Automático
Formato del Texto


No me dejes caer(BAJ)

Enanitos Verdes

calidad:
enan1532
AUTOR: Enanitos Verdes  corregir
ALBUM: Tic Tac (2013)
Enviado por esrock22
  1   2   3   4   |

G|----------------|
D|----------------|
A|----------------|
E|--7-7-7-7-7-7-7-|

  CORO

  1   2   3   4   |

G|----------------|----------------|----------------|----------------|
D|----------------|----7---7-6-----|----------------|----------------|
A|----7-----------|------------9-7-|----7-----------|----------------|
E|0-------7-7---5-|(5)-------------|0-------7-7---5-|(5)-5--55-5---5-|


  1   2   3   4   |

G|----------------|----------------|----------------|----------------|
D|----------------|----------------|----------------|----------------|
A|7---7-----------|----------------|--------4-4---4-|2-------2-2---2-|
E|--------7-7---5-|(5)------5--4---|2---2-----------|----------------|


  1   2   3   4   |

G|--------1-2---4-|9---------------|
D|2---2-----------|----------------|
A|----------------|----------------|
E|----------------|----------------|


  VERSOS:


  1   2   3   4   |

G|----------------|----------------|----------------|----------------|
D|----------------|----------------|----------------|----------------|
A|4-------4-4-----|3-------3-3-----|2-------2-2-----|1-------1-1-----|
E|----------------|----------------|----------------|----------------|


  1   2   3   4   |

G|----------------|----------------|----------------|----------------|
D|----------------|----------------|----------------|--------7-9---9-|
A|----------------|----------------|----------------|--7---9---------|
E|2-2-2-2-2-2-2-2-|4-4-4-4-4-4-4-4-|5-5-5-5-5-5-5-5-|7---------------|



  CORO

  1   2   3   4   |

G|----------------|----------------|----------------|----------------|
D|----------------|----7---7-6-----|----------------|----------------|
A|----7-----------|------------9-7-|----7-----------|----------------|
E|0-------7-7---5-|(5)-------------|0-------7-7---5-|(5)-5--55-5---5-|


  1   2   3   4   |                                 |1   2      3   4   |

G|----------------|----------------|----------------|----4--2h4-4-4-2---|
D|----------------|----------------|----------------|-----------------4-|
A|----7-----------|----------------|--------4-4---4-|2------------------|
E|0-------7-7---5-|(5)-----5---4---|2---2-----------|-------------------|


  1   2   3   4   |

G|----------------|----------------|----------------|----------------|
D|----------------|----7---7-6-----|----------------|----7---7-------|
A|----7-----------|------9-----9-7-|----7-----------|------9---9-----|
E|0-------7-7---5-|(5)-------------|0-------7-7---5-|(5)---------5-7-|


  1   2   3   4   |1   2      3   4   |                |1   2      3   4   |

G|----------------|-------------------|----------------|----4--2h4-4-------|
D|--------------7-|(7)-7--6h7-7-7---6-|----------------|-------------------|
A|----7-----------|-------------------|--------4-4---4-|2--------------0-2-|
E|0-------7-7-----|-------------------|2---2-22--------|-------------2-----|


  solo:

  1   2   3   4   |

G|----------------|----------------|----------------|----------------|
D|----------------|----------------|----------------|----------------|
A|----------------|----------------|----------------|----------------|
E|5-5-5-5-5-5-5-5-|7-7-7-7-7-7-7-7-|5-5-5-5-5-5-5-5-|7-7-7-7-7-7-7-7-|


  1   2   3   4   |

G|----------------|----------------|----------------|----------------|
D|----------------|----------------|----------------|----7h9-9-9---9-|
A|4-4-4-4-4-4-4-4-|6-6-6-6-6-6-6-6-|7-7-7-7-7-7-7-7-|9-9-------------|
E|----------------|----------------|----------------|----------------|


  CORO FINAL

  1   2   3   4   |                                 |1   2   3   4   |

G|----------------|----------------|----------------|----------------|
D|----------------|----7---7-6-----|----------------|--7-7---7-7-----|
A|----7-----------|------------9-7-|----7-----------|--------------9-|
E|0-------7-7---5-|(5)-------------|0-------7-7---5-|(5)---5---------|


  1   2   3   4   |                                 |1   2    3    4   |

G|----------------|----------------|----------------|----4---44-4----4-|
D|----------------|--------7---6---|----------------|-------4----------|
A|----7-----------|----------------|----------------|2-----------------|
E|0-------7-7---5-|(5)-------------|2---2---2-2---2-|------------------|


  1   2   3   4   |1   2   3   4   |                |1   2   3   4   |

G|----------------|----------------|----------------|----------------|
D|--------------7-|(7)-7-----------|----------------|----------------|
A|----7-----------|--------------4-|----------------|----4--44-5---7-|
E|0-------7-7-----|--------5-7-----|0---0---7-7---5-|(5)-------------|


  1   2   3   4   |1   2   3   4   |1   2   3        4   |1   2    3     4   |

G|----------------|----------------|----------2---2h4--2-|------------2----4-|
D|----------------|--------7---6---|------------4--------|----4---5----------|
A|----7-----------|----------------|---------------------|2-2----2---2---2---|
E|0-------7-7---5-|(5)-------------|2---2---2------------|-------------------|


  1   2   3        4   |1   2   3   4   |1   2   3   4   |1   2   3   4   |

G|----------2---2h4--2-|----4-4-2-2-1-1-|--------1-2---4-|9---------------|
D|------------4--------|----------------|2---2-----------|----------------|
A|---------------------|2-2-------------|----------------|----------------|
E|2---2---2------------|----------------|----------------|----------------|
Este fichero es trabajo propio de su transcriptor y representa su interpretación personal de la canción. El material contenido en esta página es
para exclusivo uso privado, por lo que se prohibe su reproducción o retransmisión, así como su uso para fines comerciales.

© LaCuerda.net · Aviso Legal · Privacidad