Tablatura para Bajo de Enanitos Verdes: Luz de día
Conexión · Inscripción
Letras y Acordes
Pantalla Completa
Imprimir
Versión Texto
Añadir Favorito
Otras Versiones

Mostrar Diagramas
Desfile Automático
Formato del Texto


Enanitos Verdes
Luz de día(BAJ)
calidad:
enan0458
AUTOR: Roberto Sorokin, Felipe Staiti
ALBUM: Nectar (2004)
Enviado por Daniel
Saludos a todos los bajistas!!! esta es mi primera contribucion
a esta gran página.

La cancion esta muy sencilla. Se toca con quintas y la única
variacion es el intro y en el solo de guitarra.

Escuchenla bien, denle su tiempo y verán. Ya nomás le meten sus adornos.



INTRO Y SOLO

   Am                       G
G-|-----------|--5-2-------|------------|--4-0-------|
D-|-----------|------------|------------|------------|
A-|-----------|------------|----5-------|------------|
E-|--5-0------|------------|--3---------|------------|

   Dm           F           C            G
G-|-----2-----|-----5------|------------|------------|
D-|--0-----2--|--3-----3---|------------|------------|
A-|-----------|------------|--3--3--3s7-|-------5----|
E-|-----------|------------|------------|--3-------3-|


VERSOS

   Am                       G
G-|-----------|------------|------------|------------|
D-|-----------|------------|------------|------------|
A-|-----------|------------|----5-------|----5-------|
E-|--5-0------|--5-0-------|--3---------|--3---------|

   Dm          F            C            G
G-|-----2-----|-----5------|------------|------------|
D-|--0-----2--|--3-----3---|------------|------------|
A-|-----------|------------|--3--3--3s7-|-------5----|
E-|-----------|------------|------------|--3-------3-|


COROS (se repite "n" veces)

   C           G            Am           F
G-|-----------|------------|------------|------------|
D-|-----------|------------|------------|--3-----3---|
A-|--3-----3--|-----5------|-----7------|-----3------|
E-|-----3-----|--3-----3---|--5-----5---|------------|
Este fichero es trabajo propio de su transcriptor y representa su interpretación personal de la canción. El material contenido en esta página es
para exclusivo uso privado, por lo que se prohibe su reproducción o retransmisión, así como su uso para fines comerciales.
© LaCuerda.net · Aviso Legal · Privacidad