Acordes de Guitarra » E »Enanitos Verdes » Guitarras Blancas (Tab)

Guitarras Blancas
Enanitos Verdes

Letras, Acordes y Tabs para Guitarra, Bajo y Ukulele

  • Intro  Cm
    
    Cm
     Una guitarra blanca, rompiendo el silencio
    
     es de lo más honesto, que yo ahora puedo escuchar
    A#                     Cm
     por favor déjenos bailar
    A#                           Cm
     por favor que nos dejen bailar.
    
    Cm
     Es uno de esos días, y me duele la espalda
    
     y aunque estoy cansado, yo necesito un poco de diversión
    A#                     Cm
     por favor déjenos bailar
    A#                           Cm
     por favor que nos dejen bailar.
    
    
  • B  = arquear LA cuerda (bend up)
    r  = soltar [release] el bend up
    /  = slide
    ~  = vibrato
    w  = whammy bar
    h  = hammer on
    p  = pull off
    AH = armónicos artificiales
    NH = armónicos naturales
    
    NOTA: Al hacer los slides (/) recuerden NO volver a tocar
    la nota donde se quedan
    
    .::INTRO::.
    00:01
    e|----11/20-----
    B|----11/20-----
    G|--------------
    D|--------------
    A|--------------
    
  •      Cm     A#    G#    A#    Em --- este E va A LA hora del cambio de tono
    E-----8-----6-----4-----6-----12--I
    B-----8-----6-----4-----6-----12--I
    G-----8-----7-----5-----7-----12--I
    D----10-----8-----6-----8-----14--I
    A-----------8-----6-----8---------I
    E-----------6-----4-----6---------I
    
    SEGUNDA ESTROFA
    Es uno de esos dias.....
    E----------------------------------I
    B-------------------x8-10-10^------I
    G----------------x8------------8~//I
    D-------------x8-------------------I
    A----------------------------------I
    E----------------------------------I
    
    al terminar el primer coro..
    E----------------------I
    B----------------------I
    
  • Es una gran rola con un gran sonido,
    sólo agarren el ritmo y ya está...
    
    Intro
    G---8h10-8/2----
    D---------------
    A---------------
    E---------------
    
    Verso 1
    G------------------------------
    D---------------------1--3----- (x7)
    A---3---3---1--3----3----------
    E---------3--------------------
    
    (0:24)
    G------------------------------
    D------------------------------
    A---3---3---1--3----3-3/6/8----
    E---------3--------------------
    
    Por favor, dejennos bailar...
    G-----------------------------------------------
    D-----------------------------------------------
    A--1-11--1-11-2--3---3----1--3-----3-3h1-1h0----
    E-----------------------3-----------------------
    
    G-----------------------------------------------
    D-----------------------------------------------
    A--1-11--1-11-2--3---3----1--3-----3-3/6/8------
    E-----------------------3-----------------------
    
    Verso 2
    G------------------------------
    D------------------------------ (x3)
    A---3---3---1--3----3-3/6/8----
    E---------3--------------------
    
    (0:50)
  • Intro....
    fig 1
    
    G---------------
    D--1-h-3--1-----
    A---------------        
    E---------------
    
    despues del intro va asi casi toda la cancion
    fig 2
    G----------------------------------------------
    D-------------------1--3-------------------------
    A--3--3---1--3----3---------------------------------
    E-------3---------------------------------------
    
    
    despues de donde dice es lo mas honesto que yo ahora puedo escuchar es asi..... 
    y luego se vuelve ala figura 2.
    
    fig 3 y 4
    G-----------------------------------------------
    D-----------------------------------------------
    A-----3--1-----3--1-------1----3---3---1--3------
    E--3--------3----------1-------------3-----------
    
    
    G-----------------------------------------------
    D-----------------------------------------------
    A-----3--1-----3--1-------1----3---3---1--3-----
    E--3--------3----------1-------------3-----------
    
    
    en la parte que dice y no hablen ahora de nueva york estare en roma o disney world 
    yo solo quie
  • cr-crash
    c2-crash 2
    rd-ride
    hh-hi hat
    t1-tom 1
    t2-tom 2
    ta-tarola
    tp-tom de piso
    bo-bombo
       (f-flam)
    
    
    Intro
    
                                        (----------------x3---------------)
    Hh|----------------|------------o---|x-x-x-x-x-x-x-x-|x-x-x-x-x-x-x-x-|
    Ta|----------------|------------o---|----o-------o---|----o-------o---|
    Bo|----------------|----------------|o-----o-o-------|o-----o-o--o----|
      (1 + 2 + 3 + 4 + |1 + 2 + 3 + 4 + |1 + 2 + 3 + 4 + |1 + 2 + 3 + 4 + )
    
    
    Hh|x-x-x-x-x-x-x-x-|x-x-x-x---------|
    T1|----------------|----------o-----|
    Ta|----o-------o---|----o---oo--f---|
    Bo|o-----o-o-------|o-----o---------|
      (1 + 2 + 3 + 4 + |1 + 2 + 3 + 4 + )
    
    
    1er verso
    
                                        (---------------2x----------------)
    Cr|X---------------|----------------|----------------|----------------|
    Hh|--x-x-x-x-x-x-x-|x-x-x-x-x-x-x-x-|x-x-x-x-x-x-x-x-|x-x-x-x-x-x-x-x-|
    T1|----o-------o---|----o-------o---|----o-------o---|----o-------o---|
    Bo|o-----o-o-------|o-----o-o--o----
  • +
    ¡Colabora con nosotros!
    Envíanos tu versión de esta canción
  • Tutorial
    HD
    Como tocar GUITARRAS BLANCAS en guitarra - Enanitos Verdes [Tutorial Somos Posers]
    6:18

Letra de Guitarras Blancas
Una guitarra blanca, rompiendo el silencio
es de lo más honesto, que yo ahora puedo escuchar
por favor déjenos bailar
por favor que nos dejen bailar.
Es uno de esos días, y me duele la espalda
y aunque estoy cansado, yo necesito un poco de diversión
por favor déjenos bailar
por favor que nos dejen bailar.
Y no hablen ahora de nueva york
de estar en roma o en disney world
yo solo quiero que nos dejen bailar.
No es un escapismo, no estoy bajando la guardia
yo solo necesito, tan solo un poco, un poco de diversion
por favor déjenos bailar
por favor que nos dejen bailar.
Y no hablen ahora de nueva york
de estar en roma o en disney world
yo solo quiero que nos dejen bailar.
Riff1
Esto es en Cm
Riff 2
Esto es en Em
Y no hablen ahora de nueva york
de estar en roma o en disney world
yo solo quiero que nos dejen bailar.
Yo solo quiero que nos dejen bailar...




[Guitarras Blancas chords][Guitarras Blancas cifra]
© LaCuerda.net · aviso legal · privacidad · es · en · pt · contacto