Tablatura para Bajo de Enanitos Verdes: Celdas
Conexión · Inscripción
Letras y Acordes
Pantalla Completa
Imprimir
Versión Texto
Añadir Favorito
Otras Versiones

Mostrar Diagramas
Desfile Automático
Formato del Texto


Celdas(BAJ)

Enanitos Verdes

calidad:
enan0133
AUTOR: Daniel Piccolo, Felipe Staiti
ALBUM: Big Bang
Enviado por Ezequiel
Hola a todos, esta canción está superchidisima de los enanos,
para mí de las más rockeras ke han sacado, esta rola en el bajo
es facil pero a la vez complicadilla.

En el requinto de inicio tienes ke estar atento, por que vas a
tocar parte del requinto, en el remate y a lo último donde
cierra..

 (1er.Rem.)  (2do. Rem.)(3er. Rem.)(4to. Rem.)
   7 seg.      9 seg.      11 seg.  13 seg.
G|----------|----------|----------|----------|
D|----------|----------|----------|----------|
A|--5-5-----|--5-5-----|--5-5-----|--5-5-----|
E|----------|----------|----------|----------|

(Complemento del bajo en el requinto)
15 seg.

G|--------------|------------5-7-|
D|--------------|--5p3--5/7------|
A|--5-5---------|----------------|
E|--------------|----------------| y repites lo mismo de nuevo...

Y Entra la voz de marciano...
(Verso)

G|------------------------
D|-----333----------------
A|-555-----3333--------2-5
E|--------------3333-3---- x 3 Veces

Después de esto hay un cambio de voz ke hace marciano y va esto..
(seguro debe existir…)

G|-------------------
D|-----333-----------
A|-111-----333---2-5-
E|------------33-----

Vuelve intro, pero en vez de 2 veces, es una nadamás… de esta
forma

G|----------|----------|----------|----------|
D|----------|----------|----------|----------|
A|--5-5-----|--5-5-----|--5-5-----|--5-5-----|
E|----------|----------|----------|----------|

Sin complemento

Verso…

G|------------------------
D|-----333----------------
A|-555-----3333--------2-5
E|--------------3333-3---- x 3 Veces

Cambio de voz de Marciano..
(no lo encuentro aquí)

G|-------------------
D|-----333-----------
A|-111-----333---2-5-
E|------------33-----

CORO:
(Celdas, celdas de animal)
(Es como el verso pero es un poquito más rápido)

G|------------------------
D|-----333----------------
A|-555-----3333--------2-5
E|--------------3333-3----

G|-------------------
D|-----333------22---
A|-555-----3333------
E|-----------------33

G|------------------------
D|-----333----------------
A|-555-----3333--------2-5
E|--------------3333-3----

Y luego el bajo complementa con esto junto con la guitarra

G|--------------------
D|----------------------
A|--1--3--5--7--8--7----
E|----------------------

Y Vuelve en intro así

G|----------|----------|----------|----------|
D|----------|----------|----------|----------|
A|--5-5-----|--5-5-----|--5-5-----|--5-5-----|
E|----------|----------|----------|----------|


G|--------------|------------5-7-|
D|--------------|--5p3--5/7------|
A|--5-5---------|----------------|
E|--------------|----------------|


Verso
G|------------------------
D|-----333----------------
A|-555-----3333--------2-5
E|--------------3333-3---- x 3 Veces

Cambio de voz de Marciano..
(No es bueno verme así..)

G|-------------------
D|-----333-----------
A|-111-----333---2-5-
E|------------33-----

CORO:
(Celdas, celdas de animal)

G|------------------------
D|-----333----------------
A|-555-----3333--------2-5
E|--------------3333-3----

G|-------------------
D|-----333------22---
A|-555-----3333------
E|-----------------33

G|------------------------
D|-----333----------------
A|-555-----3333--------2-5
E|--------------3333-3----

Para repetir el coro de nuevo tienes ke hacer esto.

G|-----------------
D|-------3--3------
A|-5--2--------5--5
E|-----------------

CORO
(Celdas, celdas de animal)

G|------------------------
D|-----333----------------
A|-555-----3333--------2-5
E|--------------3333-3----

G|-------------------
D|-----333------22---
A|-555-----3333------
E|-----------------33

G|------------------------
D|-----333----------------
A|-555-----3333--------2-5
E|--------------3333-3----

Otra vez esto:
G|-----------------
D|-------3--3------
A|-5--2--------5--5
E|-----------------

Solo de Felipe Staití…
G|------------------------
D|-----333----------------
A|-555-----3333--------2-5
E|--------------3333-3----

G|-------------------
D|-----333------22---
A|-555-----3333------
E|-----------------33

G|------------------------
D|-----333----------------
A|-555-----3333--------2-5
E|--------------3333-3----

G|----------------------------
D|-----333--------------------
A|-555-----3333--------2-55555
E|--------------3333-3--------

CORO
(Celdas, celdas de animal)

G|------------------------
D|-----333----------------
A|-555-----3333--------2-5
E|--------------3333-3----

G|-------------------
D|-----333------22---
A|-555-----3333------
E|-----------------33

G|------------------------
D|-----333----------------
A|-555-----3333--------2-5
E|--------------3333-3----

Otra vez esto:
G|-----------------
D|-------3--3------
A|-5--2--------5--5
E|-----------------

Y MARCIANO EMPIEZA A GRITAR CELDAS NADAMÁS…
Y TOCA ASÍ..

G|------------------------
D|-----333----------------
A|-555-----3333--------2-5
E|--------------3333-3----

G|-------------------
D|-----333------22---
A|-555-----3333------
E|-----------------33

G|------------------------
D|-----333----------------
A|-555-----3333--------2-5
E|--------------3333-3----

Y LE DAS DESPUÉS A ESTO:

G|--------------------
D|----------------------
A|--1--3--5--7--8--7----
E|----------------------

G|--------------------
D|----------------------
A|--1--3--5--7--8--7----
E|----------------------

Y FINALIZAS EN RE…

G|----------
D|--00000----
A|--55555----
E|-----------


ESTÁ CHIDA LA ROLA, NO CREEN?? VIVAN LOS ENANOS VERDES!!!
Este fichero es trabajo propio de su transcriptor y representa su interpretación personal de la canción. El material contenido en esta página es
para exclusivo uso privado, por lo que se prohibe su reproducción o retransmisión, así como su uso para fines comerciales.

© LaCuerda.net · Aviso Legal · Privacidad