Tablatura para Guitarra de Enanitos Verdes: Carmencita
Conexión · Inscripción
Letras y Acordes
Pantalla Completa
Imprimir
Versión Texto
Añadir Favorito
Otras Versiones

Mostrar Diagramas
Desfile Automático
Manipular Acordes
Formato del Texto


Carmencita(TAB)

Enanitos Verdes

calidad:
enan0113
AUTOR: Marciano Cantero, Felipe Staiti
ALBUM: Planetario (1997)
Enviado por Gere
*Intro:

-1ra. Guitarra:
1. -----------------------|---------------------|
2. -5h7-7-9-5---5-5/7-----|-5h7-7-9-5-----------|
3. -7---7-9-7-7-------6-7-|-7---7-9-7-6-7-9-----|
4. -----------------------|-----------------9-7-|
5. -----------------------|---------------------|
6. -----------------------|---------------------|
-2da. Guitarra:                                 |
1. -----------------------|---------------------|
2. -----------------------|---------------------|
3. -----------------------|---------------------|
4. -----------------------|---------------------|
5. -----------------------|---------------------|
6. -----------------------|---------------------|

-1ra. Guitarra:
1. ------------------------------|--------------------------------------|
2. --5h7-7--9--5-----5--5/7------|--5h7-7--9--5-------------------------|
3. --7---7--9--7--7---------6--7-|--7---7--9--7--4--6--2--4--1--2---1---|
4. ------------------------------|--------------------------------4---2-|
5. ------------------------------|--------------------------------------|
6. ------------------------------|--------------------------------------|
-2da. Guitarra:                                                         |
1. -9h10-10-12--9-------9-10-7-9-|-9h10-10-12--9----9-------------------|
2. -10---10-12-10-10/12---10-----|-10---10-12-10-12---10-12-9-10----9---|
3. ------------------------------|-------------------------------11---9-|
4. ------------------------------|--------------------------------------|
5. ------------------------------|--------------------------------------|
6. ------------------------------|--------------------------------------|

*Verso:

Em D Em Es un poco de calor
D Em y el cristal se rompe al fuego
D Em hay un angel delator
D C Em que celebra tus aciertos, y no ves,
D Em el temor a no poder
D Em levantarte si caes
D Em te transforma en un ser
D C Em con distintos rituales, y perdés.
Em D A Em Ohhh, ohhh, ohh oh oh... (X4) *Coro:
C D Em Em*-Emadd9 Hey! hey! Vamos a vibrar
C D Em mientras secan en el sol las rosas (riff 1) riff 1:
C D Em Em*-Emadd9 1. -3-2---3-3-2-| hey! hey! vamos a cantar 2. -3-3-3-3-3-3-|
D Em 3. -----2-------| Carmencita no me dejes, 4. -------------|
D A 5. -------------| Carmencita no me dejes, 6. -------------|
C D Em Carmencita no me dejes por ahora, por ahora, por ahora... *Interlude:
Em D A Em D A Em D A 1. -----------------------------------------------------| 2. -------------------9---------------------------------| 3. -9-----7-6---------9-----7-6---------9-----7-6-------| 4. -9-7-9-----5-------9-7-9-----5-------9-7-9-----5-----| 5. -------------7-5-7-------------7-5-7-------------7-5-| 6. -----------------------------------------------------|
C 1. -/10-12----10/12-10-12----| 2. -/10----10-10/12-------10-| 3. *------------------------*| 4. *------------------------*| 5. --------------------------| 6. --------------------------| *Verso:
Em D Em Es un poco de calor
D Em y el dolor se desvanece
D Em ese angel delator
D C Em siempre cuida por tu suerte, ya sabes,
D Em el temor a no poder
D Em levantarte si caes
D Em te transforma en un ser
D C Em con distintos rituales, y perdés.
Em D A Em Ohhh, ohhh, ohh oh oh... (X4) *Coro:
C D Em Em*-Emadd9 Hey! hey! Vamos a vibrar
C D Em mientras secan en el sol las rosas (riff 1)
C D Em Em*-Emadd9 hey! hey! vamos a cantar
D Em Carmencita no me dejes,
D A Carmencita no me dejes,
C D Em Carmencita no me dejes por ahora. *Solo: 1. -12/0--------------------------------------------------| 2. ---------12--------------------------------------------| 3. ------14----12-14~-------------------------------------| 4. -------------------12-14~~-----------------------------| 5. --------------------------/12-10-12/14-----------------| 6. ---------------------------------------12p10-12-10-12--| 1. -12t7------7~-12t7---------|-17t12t17t12------------------------- 2. ------10p8---------10-8-7~-|-------------17t12t17t12------------- 3. ---------------------------|-------------------------16t12t16t12- 4. ---------------------------|------------------------------------- 5. ---------------------------|------------------------------------- 6. ---------------------------|------------------------------------- 1. ---------------------------------12~-| 2. ---------------------------15-12-----| 3. ------------------------12-----------| 4. -16t12t16t12------12h14--------------| 5. -------------14//--------------------| 6. -------------------------------------|
-Arpegeo: Em Dsus2 Ohhh, ohhh, ohh oh oh... *Coro:
C D Em Em*-Emadd9 Hey! hey! Vamos a vibrar (riff 2) riff 2:
C D Em 1. ----------| mientras secan en el sol las rosas (riff 1) 2. ----------|
C D Em Em*-Emadd9 3. -/4-2-0---| hey! hey! vamos a cantar 4. --------2-|
D Em 5. ----------| Carmencita no me dejes, 6. ----------|
D A Carmencita no me dejes,
C D Carmencita no me dejes
C D Em Carmencita no me dejes por ahora
Em D A Em D A Em 1. ---------------------------------------| 2. --------------------9------------------| 3. *-9-----7-6---------9-----7-6---------*| 4. *-9-7-9-----5-------9-7-9-----5-------*| 5. --------------7-5-7-------------7-5-7--| 6. ---------------------------------------|
Em D A Em Ohhh, ohhh, ohh oh oh,
D A Em Ohhh, ohhh, ohh oh oh,
D A Em Ohhh, ohhh, ohh oh oh,
D A Ohhh, ohhh, ohh oh oh,
C - C Hey! hey! *Acordes no comunes:
Dsus2: -0-| Em*: -3-| Emadd9: -2-| -3-| -0-| -0-| -2-| -0-| -0-| -0-| -2-| -2-| ---| -2-| -2-| ---| -0-| -0-|
Este fichero es trabajo propio de su transcriptor y representa su interpretación personal de la canción. El material contenido en esta página es
para exclusivo uso privado, por lo que se prohibe su reproducción o retransmisión, así como su uso para fines comerciales.

© LaCuerda.net · Aviso Legal · Privacidad