Acordes de Guitarra » E »En Espiritu y en Verdad » Tu eres Dios (Tab)

Tu eres Dios
En Espiritu y en Verdad

Letras, Acordes y Tabs para Guitarra, Bajo y Ukulele

  •  C
     aqui estoy vine a encontrarte
     F                   C
     para ver tu gracia hoy
      Am             G
     vine a traer ofrenda a ti
        F          G
     y solo me preguntare
     Am               G          Bb -------- F
     que mas puedo hacer que adorar      adorar
    
    
     C         G/B        Am
     tu eres Dios eres señor
                F
     eres por quien yo vivo hoy
     C    G/B      Am
     eres rey de todo
               F          C
     mi vida doy para adorar
    
  •  C - G - Am - F
    
     C
     aqui estoy vine a encontrarte
     F                   C
     para ver tu gracia hoy
      Am             G
     vine a traer ofrenda a ti
        F          G
     y solo me preguntare
     Am               G          Bb -------- F
     que mas puedo hacer que adorar      adorar
    
    
     C         G/B        Am
     tu eres Dios eres señor
                F
     eres por quien yo vivo hoy
     C    G/B      Am
     eres rey de todo
    
  • e------------------------
    B------------------------
    G-5-4-5-4-5-4-5-4-5-4-5-4
    D------------------------
    A------------------------
    E------------------------ Termina la baterÍa.. Comienza ritmo
    
    
    e-------------------------------------------------------------------
    B-------------------------------------------------------------------
    G--5--5----5----5/7--7--7----7----7/9--9--9---9----9/10--10--10--10-
    D-------------------------------------------------------------------
    A--3--3----3----3/5--5--5----5----5/7--7--7---7----7/-8---8---8---8-
    E-------------------------------------------------------------------   x2
                                                       Distor y dalay a tiempo
    Aqui estoy vine a encontrarte
         C
    e-------------------------------------------- Cuando termina encontrarte
    B------5----encontrarte---------5----66---5-- sigue un espacio
    G-----5-----------------------5---5-----5---- hay va el arpejeo con chorus
    
  • e------------------------
    B------------------------
    G-5-4-5-4-5-4-5-4-5-4-5-4
    D------------------------
    A------------------------
    E------------------------
    
    acordes despues del intro
    
    C-G-Am-F  ( esto se ase con un poco de distor )
    
     C
     aqui estoy vine a encontrarte
     F                   C
     para ver tu gracia hoy
      Am             G
     vine a traer ofrenda a ti
        F          G
     y solo me preguntare
     Am               G          Bb -------- F
    
  • +
    ¡Colabora con nosotros!
    Envíanos tu versión de esta canción

Letra de Tu eres Dios
aqui estoy vine a encontrarte
para ver tu gracia hoy
vine a traer ofrenda a ti
y solo me preguntare
que mas puedo hacer que adorar adorar
tu eres Dios eres señor
eres por quien yo vivo hoy
eres rey de todo
mi vida doy para adorar
aqui estoy vine a agradecerte
mi vida tu cambiaste
tu vida diste por mi
tu hijo murio en la cruz por mi
que mas puedo hacer que adorar adorar
ESO ES TODO ESPERO K LES GUSTE LES DEJO
MI CORREO SALE CUIDENSE K DIOS LES BEMDIGA
AZUL_SPORT2008@HOTMAIL.COM




[Tu eres Dios chords][Tu eres Dios cifra]
© LaCuerda.net · aviso legal · privacidad · es · en · pt · contacto