Tablatura para Guitarra de En Espiritu y en Verdad: Infinito Dios (nuevas fuerzas tendrán)
Conexión · Inscripción
Letras y Acordes
Pantalla Completa
Imprimir
Versión Texto
Añadir Favorito
Otras Versiones

Mostrar Diagramas
Desfile Automático
Manipular Acordes
Formato del Texto


Infinito Dios (nuevas fuerzas tendrán)(TAB)

En Espiritu y en Verdad

calidad:
eeyx0233
AUTOR: Chris Tomlin
ALBUM: Por Salir (2009)
Enviado por obed
Intro...
E |-------------------------------------------------9-|
B |-----------------------------------------------6--|
G |---------0-0------2-3-3-2-0-------0-2-3-3-2-0---|
D |-----h-0-2----------------------3--------------3-|
A |----3-------------------------------------------|
E |------------------------------------------------|

Estrofas

E |------------------------------------------------------|
B |------------------------------------------------------|
G |---------0-0------2-3-3-2-0-------0-2-3-3-2-0---------|
D |-------------------------------3--------------3-------|
A |----3-------------------------------------------------|
E |------------------------------------------------------|


C F // NUEVAS FUERZAS TENDRAN A LOS QUE ESPERAN EN DIOS ESPERAREMOS EN DIOS, ESPERAREMOS //
F Am G DIOS REINARA POR SIEMPRE
F Am G NUESTRO FUERTE LIBERTADOR CORO:
C F Am ERES EL INFINITO DIOS, EL INFINITO DIOS
F C F TU NO DESMAYAS NUNCA FALLAS, DEFENSOR DE LOS DEBILES
Am F C NUESTRO CONSOLADOR, NOS LEVANTASTE EN ALAS DE AGUILA SOlo x2 E |----------------------------8-8---------| B |---------------------------8---8-8-10---| G |-------------------------------------9--| D |----------------------------------------| A |----------------------------------------| E |----------------------------------------| E |--------------------8--8--8-10-12--12-12---| B |-------------------8--8--8---------------12| G |-------------------------------------------| D |-------------------------------------------| A |-------------------------------------------| E |-------------------------------------------|
Este fichero es trabajo propio de su transcriptor y representa su interpretación personal de la canción. El material contenido en esta página es
para exclusivo uso privado, por lo que se prohibe su reproducción o retransmisión, así como su uso para fines comerciales.

© LaCuerda.net · Aviso Legal · Privacidad