Acordes de Guitarra » E »En Espiritu y en Verdad » Abiertos a tu verdad (Tab)

Abiertos a tu verdad
En Espiritu y en Verdad

Letras, Notas, Punteos, Tablaturas y Acordes de Guitarra (Tabs & Chords)

  • Letra y Acordes
    B - G#m - E
    
    
    Estrofa
    
     B
    Abiertos a tu verdad, rendidos a tu voluntad
     G#m                                   E
    Dejándolo todo atrás venimos hoy ante ti
       B
    Consientes de tu amor toda defensa cae
     G#m                                     E
    Sabemos que estas aquí para volvernos a ti
    
    
    Estrofa II
    
    B
     En medio de esta tierra seca del cielo
      G#m                           E
    
  • Tablatura
    e |---------6h7---|---------|-----------------------6h7----|---------------|
    B |--------7------|--------7|----------7-7/9-9/11/12-------|--------7------|
    G |-6-8-9-8-----x3|-6-8-9-8-|-6/8-8/9/8-----------------x3-|-6-8-9-8-------|
    D |---------------|---------|------------------------------|---------------|
    A |---------------|---------|------------------------------|---------------|
    E |---------------|---------|------------------------------|---------------|
    
       1:42 & 1:58
    
    
    e |---------------------------|--------------------------------------------|
    B |----------7-7/9-9/11/12----|-7h9-9h11-11h12-12/14-12h14-14h16-16b-------|
    G |-6/8-8/9/8--------------x2-|--------------------------------------x2----|
    D |---------------------------|--------------------------------------------|
    A |---------------------------|--------------------------------------------|
    E |---------------------------|--------------------------------------------|
    
    INTRO
    B - G#m - E
    
    
  • +
    ¡Colabora con nosotros!
    Envíanos tu versión de esta canción

Letra de Abiertos a tu verdad
Estrofa
Abiertos a tu verdad, rendidos a tu voluntad
Dejándolo todo atrás venimos hoy ante ti
Consientes de tu amor toda defensa cae
Sabemos que estas aquí para volvernos a ti
Estrofa II
En medio de esta tierra seca del cielo
Llueve tu Espíritu y todo vivirá
En medio de la noche oscura tu rostro
Resplandecerá, tú permanecerás
Oh, oh, oh… oh, oh, oh, oh…
Oh, oh, oh… oh, oh, oh, oh…
Cántenlo Jesús es Rey
Por siempre resplandece
Perfecta gloria y majestad
Consumen todo nuestro ser
Toda nuestra vida es
Para que todos puedan ver
Glorioso y supremo es
El Reina para siempre
Te invito a mi foro de músicos cristianos:
www.musicoscristianos.foroactivo.net



© LaCuerda.net · Aviso Legal · Privacidad