Tablatura para Guitarra de Elvis Martinez: Maestra
Conexión · Inscripción
Letras y Acordes
Pantalla Completa
Imprimir
Versión Texto
Añadir Favorito
Otras Versiones

Mostrar Diagramas
Desfile Automático
Manipular Acordes
Formato del Texto


Elvis Martinez
Maestra(TAB)
calidad:
emrt0011
AUTOR: Elvis Martinez  corregir
ALBUM: desconocido
Enviado por sal
Intro:
1E||--------------------------------------------||
2B||-----0-------9------13---12-11~-------------||
3G||--------0~-----8---12---11-10~--------------||
4D||---8----------------------------------------||
5A||--------------------------------------------||
6E||--------------------------------------------||
|--rapido--|
1E||:--------9-13-11-9-11-9-8-8h-9---------------------||
2B||-----11---------------------------11---------------||
3G||--10--------------------------------11-------------||
4D||---------------------------------------------------||
5A||---------------------------------------------------||
6E||---------------------------------------------------||
                                              dos veces.  *solo la primera vez
1E||-------9--11-9-8-9-8-------------------------13*--:||
2B||----11-----------------9-9/11-9h-11-9h-11---------:||
3G||-10-----------------------------------------------:||
4D||--------------------------------------------------:||
5A||--------------------------------------------------:||
6E||--------------------------------------------------:|| cuatro veces

1E||:--------0-8---0-8---------------0-9----0-9------:||-----9---13~----13--------||
2B||:------9------9------9--------11-----11-----11---:||--11--------------14------||
3G||:----8---------------------10--------------------:||--10----------------15----||
4D||:------------------------------------------------:||--------------------------||
5A||:------------------------------------------------:||--------------------------||
6E||:------------------------------------------------:|| -------------------------||

      6 5  4  3  2  1
 Bbm (x-x- 8- 0-0^7-x)
F# (x-x-9-0-7^9-x)
Ab (x-x-10-8-9^11-x)
C# (x-x-11-10-9-x)
Bbm Ab Bbm Soy un hombre inocente todavia, necesito una mujer
Ab Bbm Que en las noches me eleve a la luna, volando alto sin dejarme caer
F# Ab C# Ab Esa mujer tiene que ser tu, me lo dice el corazon
Bm F# que tu eres la mujer, no te valla a recistir
Ab C# C#AbBm ven enseñame a hacer el amor
F# Como sera la primera vez
Ab Bbm que se seinte?
Ab Tocar el cuerpo de una mujer
Ab Bbm(pausa) Bbm (x3) por primera vez
F# C# Ab Maestra, enseñeme usted oh oh...
F# C # Ab Desnudese, que yo la quiero ver
Bbm Por primera vez! Coro y despues el solo usando el intro Para el segundo verso es casi lo mismo. Se usa los acordes Bbm, F#, y Ab en es orden. Si lo escuchan bien ya sabran como. Lleveme a su apartamento y digame que debo hacer No olvides que soy un nino, y es mi primera vez Abuse de mi inocencia, no importa lo quiero hacer Usted me a enloquecido, maestra enseneme Cuando la vi, usted me imnotiso mi corazon palpito que linda emocion, mi cuerpo temblo loco por sentirla, y hacerle el amor Como sera la primera vez que se seinte? Tocar el cuerpo de una mujer por primera vez Maestra, enseneme usted. Desnudese, que yo la quiero ver Por primera vez! Transcripcion hecha por javier medina y sal joya. Si tienen sugerencias mande e-mail a most785@hotmail.com con “cancion” bajo la linea sujetao o si tienen otras canciones de bachata.
Este fichero es trabajo propio de su transcriptor y representa su interpretación personal de la canción. El material contenido en esta página es
para exclusivo uso privado, por lo que se prohibe su reproducción o retransmisión, así como su uso para fines comerciales.
© LaCuerda.net · Aviso Legal · Privacidad